» » »

I Think About You Everyday Tabs (ver.2)

Artists:  A B C D E F G H I J K L M N O P Q R S T U V W X Y Z # 

I Think About You Everyday Tabs (ver.2)

A Rocket To The Moon
Rating:
0/5 (0 votes)

Hard to play? Try these video lessons and learn fast.
                this is my first time tabbing a song so I'm sorry if there are some corrections... :) 
I tabbed this song by ear...

 for the intro , verse , and the part after 2nd chorus goes like this

 |----------------------------------------------------------------------|
 |-23--223---2----23--223----2------------------------------------------|
 |-2---22----2----2---22-----2------------------------------------------|
 |-----------2---------------2------------------------------------------|
 |----------------------------------------------------------------------|
 |----------------------------------------------------------------------|

 as for the chorus its like this

 |--------------------2--------2----------------------------------------|
 |-2------------------2---------3---------------------------------------|
 |-2-------1----------2-4------2----------------------------------------|
 |-2-------2----------2-4-----------------------------------------------|
 |---------2----------2-------------------------------------------------|
 |----------------------------------------------------------------------|

  uhh... and as for the strumming pattern... I'll let you figure it out.. :)
            
Hard to play? Try these video lessons and learn fast. | Correct




comments powered by Disqus
↑ Back to top | Tablatures and chords are parodies/interpretations of the original songs. You may use it for private study, scholarship, research or language learning purposes only