» » »

Fear Of Flying Tabs (ver.1)

Artists:  A B C D E F G H I J K L M N O P Q R S T U V W X Y Z # 

Fear Of Flying Tabs (ver.1)

A Rocket To The Moon
Rating:
4/5 (3 votes)

Hard to play? Try these video lessons and learn fast.
                Standard Tuning
Capo. on 2nd Fret

Intro/verse:
e:--0-----0-|		
B:--1-----1-|
G:--2--0--0-|
D:--3--0--2-|
A:--3--2--3-|
E:-----3----|  x3

e:--0------|
B:--1------|
G:--0--0---|
D:--2--0---|
A:--3--2---|
E:--3--3---|   x1

e:--0-----0-|
B:--1-----1-|
G:--2--0--0-|
D:--3--0--2-|
A:--3--2--3-|
E:-----3----|  x3

e:--0------|
B:--1------|
G:--0--0---|
D:--2--0---|
A:--3--2---|
E:--3--3---|   x1

e:--0-----0-|
B:--1-----1-|
G:--2--0--0-|
D:--3--0--2-|
A:--3--2--3-|
E:-----3----|  x3

e:--0------|		
B:--1------|		
G:--0--0---|		
D:--2--0---|		
A:--3--2---|		
E:--3--3---|   x2	

e:--0--|
B:--1--|
G:--0--|
D:--2--|
A:--3--|
E:--3--|

Chorus:
e:--0-----0--0----|
B:--1-----1--1----|
G:--0--1--2--2--0-|
D:--2--0--3--3--0-|
A:--3--2--0--3--2-|
E:--3--3--------3-|   x2

Post-chorus:
e:--0-----0-|		
B:--1-----1-|
G:--2--0--0-|
D:--3--0--2-|
A:--3--2--3-|
E:-----3----|  x3

e:--0------|
B:--1------|
G:--0--0---|
D:--2--0---|
A:--3--2---|
E:--3--3---|   x1

Verse:
e:--0-----0-|		
B:--1-----1-|
G:--2--0--0-|
D:--3--0--2-|
A:--3--2--3-|
E:-----3----|  x3

e:--0------|
B:--1------|
G:--0--0---|
D:--2--0---|
A:--3--2---|
E:--3--3---|   x1

e:--0-----0-|		
B:--1-----1-|
G:--2--0--0-|
D:--3--0--2-|
A:--3--2--3-|
E:-----3----|  x3

e:--0------|
B:--1------|
G:--0--0---|
D:--2--0---|
A:--3--2---|
E:--3--3---|   x1

Chorus:
e:--0-----0--0----|
B:--1-----1--1----|
G:--0--1--2--2--0-|
D:--2--0--3--3--0-|
A:--3--2--0--3--2-|
E:--3--3--------3-|   x2

Bridge:
e:--0-----0--0----|
B:--1-----1--1----|
G:--0--0--2--0--0-|
D:--2--0--3--2--0-|
A:--3--2--0--3--2-|
E:--3--3-----0--3-|   x2

Verse:
e:--0-----0-|		
B:--1-----1-|
G:--2--0--0-|
D:--3--0--2-|
A:--3--2--3-|
E:-----3----|  x3

e:--0------|
B:--1------|
G:--0--0---|
D:--2--0---|
A:--3--2---|
E:--3--3---|   x2

Bridge/outro:
e:--0-----0--0----|
B:--1-----1--1----|
G:--0--1--2--2--0-|
D:--2--0--3--3--0-|
A:--3--2--0--3--2-|
E:--3--3--------3-|   x2

e:--0-----0--0----|
B:--1-----1--1----|
G:--0--0--2--0--0-|
D:--2--0--3--2--0-|
A:--3--2--0--3--2-|
E:--3--3-----0--3-|   x1

e:--0-|
B:--1-|
G:--0-|
D:--2-|
A:--3-|
E:--3-|
            
Hard to play? Try these video lessons and learn fast. | Correct




comments powered by Disqus
↑ Back to top | Tablatures and chords are parodies/interpretations of the original songs. You may use it for private study, scholarship, research or language learning purposes only