» » »

Dakota Tabs (ver.2)

Artists:  A B C D E F G H I J K L M N O P Q R S T U V W X Y Z # 

Dakota Tabs (ver.2)

A Rocket To The Moon
Rating:
0/5 (0 votes)

Hard to play? Try these video lessons and learn fast.
                my first tab :D

Capo on the 1st fret.

Intro Lead (x2)
e|------10---------10---------|
B|-10-12---12-10-12-12-10-10--|
G|--------------------------12|
D|----------------------------|
A|----------------------------|
E|----------------------------|


Intro (x2):
e|-0---0---3---0-|
B|-1---1---3---1-|
G|-2---0---0---2-|
D|-3---2---0---2-|
A|-3---3---2---0-|
E|-x---x---3---x-|

Verse (x2):
e|-0---0-|
B|-1---1-|
G|-0---0-|
D|-2---2-|
A|-3---0-|
E|-x---x-|

".. Up her eyes..":
e|-0---3---0-|
B|-1---3---1-|
G|-2---0---2-|
D|-3---0---2-|
A|-3---2---0-|
E|-x---3---x-|

".. She sings to me at night..":
e|-0---3---3-|
B|-1---3---3-|
G|-2---0---0-|
D|-3---0---3-|
A|-3---2---2-|
E|-x---3---x-|

Ba da ba ba ba da ba ba ba ba da (x2):
e|-0---0-|
B|-1---1-|
G|-0---0-|
D|-2---2-|
A|-3---0-|
E|-x---x-|

Verse (x2):
e|-0---0-|
B|-1---1-|
G|-0---0-|
D|-2---2-|
A|-3---0-|
E|-x---x-|

"..But I, can make up my own words":
e|-0-|
B|-1-|
G|-2-|
D|-3-|
A|-3-|
E|-x-|

Chorus (x2):
e|-0---0---3---0-|
B|-1---1---3---1-|
G|-2---0---0---2-|
D|-3---2---0---2-|
A|-3---3---2---0-|
E|-x---x---3---x-|

".. It's the way you do the things you do..":
e|-0---0---3---3---0---3---0-|
B|-1---1---3---3---1---3---1-|
G|-2---0---0---0---2---0---2-|
D|-3---2---0---0---2---0---3-|
A|-3---3---2---0---0---3---3-|
E|-x---x---3---4---x---2---x-|

Verse (x2):
e|-0---0-|
B|-1---1-|
G|-0---0-|
D|-2---2-|
A|-3---0-|
E|-x---x-|

".. This time, I'll try not to show, woah oh oh, That I, am not letting go.."
e|-0----------------0----------------0----0---0-------------0-|
B|-1----------------3----------------3----2---1-------------3-|
G|-2----------------4----------------4----3---2-------------4-|
D|-3----------------5----------------5----4---3-------------5-|
A|-3----------------5----------------5----4---3-------------5-|
E|-x----------------x----------------x----x---x-------------x-|

Chorus (x2):
e|-0---0---3---0-|
B|-1---1---3---1-|
G|-2---0---0---2-|
D|-3---2---0---2-|
A|-3---3---2---0-|
E|-x---x---3---x-|

".. It's the way you do the things you do..":
e|-0---0---3---3---0---3---0-|
B|-1---1---3---3---1---3---1-|
G|-2---0---0---0---2---0---2-|
D|-3---2---0---0---2---0---3-|
A|-3---3---2---0---0---3---3-|
E|-x---x---3---4---x---2---x-|

Bridge (x2):
e|-0---0---0---0-|
B|-1---1---1---0-|
G|-2---2---0---0-|
D|-2---3---2---0-|
A|-0---3---3---2-|
E|-x---x---x---3-|

Ba da ba ba ba da ba ba ba ba da (x2)

Chorus (x2):
e|-0---0---3---0-|
B|-1---1---3---1-|
G|-2---0---0---2-|
D|-3---2---0---2-|
A|-3---3---2---0-|
E|-x---x---3---x-|

".. I'm in love with you, are you in love with me too?":
e|-0---3---0-|
B|-1---3---1-|
G|-2---0---2-|
D|-2---0---3-|
A|-0---2---3-|
E|-x---3---x-|
            
Hard to play? Try these video lessons and learn fast. | Correct




comments powered by Disqus
↑ Back to top | Tablatures and chords are parodies/interpretations of the original songs. You may use it for private study, scholarship, research or language learning purposes only