>
 >
Used To Know Her

Used To Know Her Guitar Tabs

Army Of Anyone - Used To Know Her chords, tabs, tablatures, lyrics

Guitar lessons | Add/correct | Request | Top 50 tabs Artists:  A B C D E F G H I J K L M N O P Q R S T U V W X Y Z 0-9

Used To Know Her Guitar Tabs – Army Of Anyone

CD, Sheet music, Poster

Do you like Used To Know Her? Share with your friends now
Tabs

d strum down
u strum up
/ slide up
\ slide down
h hammer on
p pull off


-------|-8-7-5-----7-5-------5----------|-------------------------------------|
-------|-------5-------5-4-----4-0-2----|-------------------------------------|
-------|--------------------------------|-------------------------------------|
-------|-0---------0---------0----------|-------------------------------------|
-------|--------------------------------|-------------------------------------|
-------|--------------------------------|-------------------------------------|


-------|-5h7-5-x-x---x--x-x--x-x----x-x-x---x---x--x-0------------------------|
-------|-0---0-5-4---4--4-4--4-4--2-2-4-2-0-2---2--2-2------------------------|
-------|-x---x-0-0---0--0-0--0-0----0-0-0---0---0--0-x--------------------0---|
-------|----------------------------------------------------0-2-2/4-0-----0---|
-------|------------------------------------------------0h2-----------4/5-----|
-------|----------------------------------------------------------------------|


---------------------------------------------|-5-5h7--5-x-x-|-----------------|
---------------------------------------------|-0-0----0-5-4-|-----------------|
--0--0------0----------------0-0-0--0-0--0-0-|-x-x----x-0-0-|-----------------|
--0--------------------------0-0-0--0-0--0-0-|--------------|-----------------|
--------2/3---2/3-0-2p0-2/5------------------|--------------|-----------------|
---------------------------------------------|--------------|-----------------|
                                              Begins w/ this next time

--|-------------------------------------------------------------------|-------|
--|-------------------------------------------------------------------|-------|
--|-4/5--5/7--9-----4/5--5--5-\-3-----2/3--3-3--5--5/7\5--5/7\5-------|-------|
--|---------------------------------7----------------------------7----|-------|
--|-------------------------------------------------------------------|-------|
--|-------------------------------------------------------------------|-------|
   G2 Pt.1

--|-------------------------------------------------------------------|-------|
--|-------------------------------------------------------------------|-------|
--|-4/5--5-7--9-----4/5--5--5-\-3-----2/3--3-3--5--7\5-5--5/7\5--3/5--|-------|
--|---------------------------------7---------------------------------|-------|
--|-------------------------------------------------------------------|-------|
--|-------------------------------------------------------------------|-------|
   G2 Pt.2

--|-x-x--x--x---x-x--x--x-x-x--x--x---x-x--x--x-x-x--x--x--x-x--x--x-x-x--x---|
--|-4-5--7--9---4-4--4--4-4-5--7--9---2-2--2--4-4-5--7--9--4-4--4--4-4-5--7---|
--|-0-0--0--0---0-0--0--0-0-0--0--0---0-0--0--0-0-0--0--0--0-0--0--0-0-0--0---|
--|---------------------------------------------------------------------------|
--|---------------------------------------------------------------------------|
--|-------------5-5--5--------------------------------------------------------|
   P.M 00's

--x--------------------------x---|--------------------------------------------|
--9--------------------------0---|--------------------------------------------|
--0--0-0-0-0--0---0-0--0-0-0-0---|--------------------------------------------|
-----0-0-x-x--x---x-x--x-x-x-----|--------------------------------------------|
---------3-3--3---3-3--3-3-3-----|--------------------------------------------|
---------------------------------|--------------------------------------------|


-----|-------------------------|----------------------------------------------|
-----|-------------------------|----------------------------------------------|
-----|-7-7/9-5/7----5-5/7-3----|-\--------------------------------------------|
-----|-------------------------|----------------------------------------------|
-----|-------------------------|----------------------------------------------|
-----|-------------------------|----------------------------------------------|
  G2

-----|-----------------------------------------------------------------|------|
-----|----------------------------------------------------------|------|
-----|-----0----0----0-----10---10--10-10-10-5-5--5--5-5-5-5-5--5--5-5-|------|
-----|-0---4/5--5/7--7/9---10---10--10-10-10-5-5--5--5-5-5-7-7--7--7-7-|------|
-----|-4/5-------------------------------------------------------------|------|
-----|-x---------------------------------------------------------------|------|


-----|----------------------------------------------|-------------------------|
-----|----------------------------------------------|-------------------------|
-----|-----0----0----0-----10--10--10-10-5-5--5-----|-------------------------|
-----|-0---4/5--5/7--7/9---10--10--10-10-5-5--5-----|-------------------------|
-----|-4/5------------------------------------------|-------------------------|
-----|-x--------------------------------------------|-------------------------|
      Ending

-----|--------------------------|--------|-----|--------|---------------------|
-----|--------------------------|--------|-----|--------|---------------------|
-----|-10-10-10\9-9-9-9\7-7-7\5-|--5\-0--|--5--|-5\-2/5-|---------------------|
-----|--------------------------|--------|-----|--------|---------------------|
-----|--------------------------|--------|-----|--------|---------------------|
-----|--------------------------|--------|-----|--------|---------------------|
   G2                             Differnt endings each time





Comments


Popular Army Of Anyone tabs & chords
A Better Place Bass Tabs
Father Figure Bass Tabs
It Doesn't Seem To Matter Bass Tabs
Disappear Tabs
Generation Tabs
Good Time To Loosen Tabs
Goodbye 1 Tabs
It Doesn't Seem To Matter Tabs
Leave It Tabs
Stop Look And Listen Tabs


Song lyrics



↑ Back to top | Tablatures and chords are parodies/interpretations of the original songs. You may use it for private study, scholarship, research or language learning purposes only
© 2014 AZChords.com Contact us | Privacy policy | DMCA | Add/correct tabs | Request tabs | Top 50 tabs