>
 >
This Wasn't Supposed To Happen

This Wasn't Supposed To Happen Bass Tabs

Army Of Anyone - This Wasn't Supposed To Happen chords, tabs, tablatures, lyrics

Guitar lessons | Add/correct | Request | Top 50 tabs Artists:  A B C D E F G H I J K L M N O P Q R S T U V W X Y Z 0-9

This Wasn't Supposed To Happen Bass Tabs – Army Of Anyone

CD, Sheet music, Poster

Do you like This Wasn't Supposed To Happen? Share with your friends now
Bass TabsTabs
Army of Anyone - "This Wasn't Supposed to Happen"
Standard bass tuning


Intro
G|-------------------------|-------------------------|----------------------------|
D|-------------------------|-------------------------|----------------------------|
A|-3----3----3--6-6---6----|--------------5-5---5----|--------------3-3---3-------|
E|-------------------------|-4----4----4-------------|-1----1----1------------0-1-|

|--------------------------------------|
|--------------------------------------|
|-----------3--10-10-10----10----10----|
|-3----3----------------------10-------|




Verse 1
|------------------------------|------------------------------|
|------------------------------|------------------------------|
|--------------12--10--8---7---|------------------------------|
|-10---10---10-----------------|-5----5----0--5---5---5----0--|


|---------------------------|------------------------------|---------------------------|
|---------------------------|------------------------------|---------------------------|
|---------------------------|--------------12--10--8---7---|---------------------------|
|-5----5----0--5---5---5----|-10---10---10-----------------|-5----5----0--5---5---5----|


|---------------------------|----------------------------------|--------------------------------|
|---------------------------|----------------------------------|--------------------------------|
|-3----3--------------------|--------------3--3--3---3---------|-----------3--10-10-10------10--|
|-----------0--3---3---3----|-1----1----1----------------0--1--|-3----3------------------10-----|



Prechorus - last bar is 2 beats
G|-----------------------------|-----------------------------|-----------------------------|
D|-----------------------------|-----------------------------|-----------------------------|
A|-1----1----1-----3--3---3----|-----------------5--5---5----|-1----1----1--3--3--3---3----|
E|-----------------------------|-5----5----5-----------------|-----------------------------|


|-----------------|-----------|
|-----------------|-----------|
|------5----12----|-12---12---|
|-5---------------|-----------|




Chorus

G|-----------------------------|-----------------------------|
D|-----------------------------|-----------------------------|
A|-3----3----3-----6--6---6----|-----------------5--5---5----|
E|-----------------------------|-4----4----4-----------------|

|----------------------------------|------------------------------------||
|----------------------------------|------------------------------------||
|-----------------3--3---3---------|-----------3--10-10-10--------10----||
|-1----1----1----------------0--1--|-3----3--------------------10-------||

-----------------------------|
-----------------------------|
-3----3----3-----------------|
-----------------6--6---6----|



|-----------------------------|----------------------------------||
|-----------------------------|----------------------------------||
|-----------------5--5---5----|-----------------3--3---3---------||
|-4----4----4-----------------|-1----1----1----------------0--1--||

------------------------------------|
------------------------------------|
-----------3--10-10-10--------10-12-|
-3----3--------------------10-------|




Verse 2

G|------------------------------|------------------------------|---------------------------|
D|------------------------------|------------------------------|---------------------------|
A|--------------12--10--8---7---|------------------------------|---------------------------|
E|-10---10---10-----------------|-5----5----0--5---5---5----0--|-5----5----0--5---5---5----|


G|------------------------------|--------------------------------|---------------------------|
D|------------------------------|--------------------------------|---------------------------|
A|--------------12--10--8---7---|--------------------------------|---------------------------|
E|-10---10---10-----------------|-5----5----0--5---5---5---5--7--|-8----8----0--3---3---3----|


G|-10--------------9-------12--------|--------------------------|
D|-----10--------------10------10-12-|--------------------------|
A|---------12--8---------------------|-10---10---10----12---10--|
E|-----------------------------------|--------------10----------|




Play Prechorus Again

Play Chorus Again




Bridge - last bar is 2 beats

G|-----------------------------|---------------------------|
D|-----------------------------|---------------------------|
A|-7----7---7-----9--9----9----|-6----6----6--11--11--11---|
E|-----------------------------|---------------------------|

G|--------------------------------|---------------------13----15----|-13----------------|
D|--------------------------------|----------------13------13----13-|-----15--13--------|
A|-7----7---7-----9--9----9----7--|-6----6---6--13------------------|------------15-13--|
E|--------------------------------|---------------------------------|-------------------|





Outro / Acoustic Solo

G|-----------------------------|-----------------------------|
D|-----------------------------|-----------------------------|
A|-3----3----3-----6--6---6----|-----------------5--5---5----|
E|-----------------------------|-4----4----4-----------------|


G|----------------------------------|------------------------------------|-------------------------|
D|----------------------------------|------------------------------------|-------------------------|
A|-----------------3--3---3---------|-----------3--10----10--------10----|-3----3----3-------------|
E|-1----1----1----------------0--1--|-3----3--------------------10-------|-----------------6--6---6|


G|-----------------------------|----------------------------------|--------------------------------|
D|-----------------------------|----------------------------------|--------------------------------|
A|-----------------5--5---5----|-----------------3--3---3---------|-----------3--10----10--------10|
E|-4----4----4-----------------|-1----1----1----------------0--1--|-3----3--------------------10---|


G|-----------------------------|-----------------------------|----------------------------------|
D|-----------------------------|-----------------------------|----------------------------------|
A|-3----3----3-----------------|-----------------5--5---5----|-----------------3--3---3---------|
E|-----------------6--6---6----|-4----4----4-----------------|-1----1----1----------------0--1--|


G|-----------------------------|-----------------------------|-----------------------------|
D|-----------------------------|-----------------------------|-----------------------------|
A|-----------5----------5------|-3----3----3-----6--6---6----|-----------------5--5---5----|
E|-3----3----------3-------3---|-----------------------------|-4----4----4-----------------|


G|----------------------------------|------------------------------------|-------------------------|
D|----------------------------------|------------------------------------|-------------------------|
A|-----------------3--3---3---------|-----------3--10----10--------10----|-3----3----3-------------|
E|-1----1----1----------------0--1--|-3----3--------------------10-------|-----------------6--6---6|


G|-----------------------------|----------------------------------|--------------------------------|
D|-----------------------------|----------------------------------|--------------------------------|
A|-----------------5--5---5----|-----------------3--3---3---------|-----------3--10----10--------10|
E|-4----4----4-----------------|-1----1----1----------------0--1--|-3----3--------------------10---|


G|-----------------------------|-----------------------------|----------------------------------|
D|-----------------------------|-----------------------------|----------------------------------|
A|-3----3----3-----------------|-----------------5--5---5----|-----------------3--3---3---------|
E|-----------------6--6---6----|-4----4----4-----------------|-1----1----1----------------0--1--|


G|------------------------------------|
D|------------------------------------|
A|-----------3--10----10--------10----|
E|-3----3--------------------10-------|





Comments


Popular Army Of Anyone tabs & chords
Disappear Bass Tabs
A Better Place Tabs
Disappear 1 Tabs
Generation Tabs
Goodbye Tabs
Goodbye 1 Tabs
Goodbye 2 Tabs
It Doesn't Seem To Matter Tabs
Leave It Tabs
Stop Look And Listen Tabs


Song lyrics



↑ Back to top | Tablatures and chords are parodies/interpretations of the original songs. You may use it for private study, scholarship, research or language learning purposes only
© 2014 AZChords.com Contact us | Privacy policy | DMCA | Add/correct tabs | Request tabs | Top 50 tabs