>
 >
Nonstop

Nonstop Guitar Tabs

Army Of Anyone - Nonstop chords, tabs, tablatures, lyrics

Guitar lessons | Add/correct | Request | Top 50 tabs Artists:  A B C D E F G H I J K L M N O P Q R S T U V W X Y Z 0-9

Nonstop Guitar Tabs – Army Of Anyone

CD, Sheet music, Poster

Do you like Nonstop? Share with your friends now
Tabs


/ slide up
\ slide down
b bend
r release bend
h hammer on
p pull off
p.m. palm mute
d strum down
u strum up

Tuning: DADFAD

-----|-----------------------------|------------------------------------------|
-----|-----------------------------|------------------------------------------|
-----|-----------------------------|------------------------------------------|
-----|-----x------x-x--x--x--------|------------------------------------------|
-----|-----5------5-8--5--3--------|------------------------------------------|
-----|-0-0-0--0-0-0-0--0--0--0-0-0-|------------------------------------------|
  Bass Arranged for Guitar P.M. all

-----|---------------------------0----------------------------0-|-------------|
-----|--------------------------0----------------------------0--|-------------|
-----|-----------------------3/4--------------------------3-4---|-------------|
-----|-0-0-0-------0--0--0----------0-0-0-------0--0--0---------|-------------|
-----|-3-3-2--0-2--3--2--2/3--------3-3-2--0-2--3--2--2/3-------|-------------|
-----|-x-x-x-------x--x--x----------x-x-x-------x--x--x---------|-------------|
  Verse                      d      d u d  d d  d  d  d   d d

-----|---------------------------0--------------------|-----------------------|
-----|--------------------------0---------------------|-----------------------|
-----|-----------------------3/4----------------------|-----------------------|
-----|-0-0-0-------0--0--0----------0-0-0-------0--0--|-----------------------|
-----|-3-3-2--0-2--3--2--2/3--------3-3-2--0-2--3--2--|-----------------------|
-----|-x-x-x-------x--x--x----------x-x-x-------x--x--|-----------------------|
   Verse Out


-----|-----------x--x-x-x-x-x-x-----------x--x-x-x-x-x-x-|--------------------|
-----|-----------0--0-0-0-0-0-0-----------0--0-0-0-0-0-0-|--------------------|
-----|-----------4--4-4-4-4-4-4-----------4--4-4-4-4-4-4-|--------------------|
-----|-0-5-5--------------------0-5-5--------------------|--------------------|
-----|-0-3-3--------------------0-3-3--------------------|--------------------|
-----|-x-x-x--0-----------------x-x-x--0-----------------|--------------------|
   Pre Chorus Pt 1


-----|-----------x--x-x-x-x-x-x-----------x--x-x-x-x-x-x-|--------------------|
-----|-----------0--0-0-0-0-0-0-----------0--0-0-0-0-0-0-|--------------------|
-----|-----------4--4-4-4-4-4-4-----------4--4-4-4-4-4-4-|--------------------|
-----|-0-3-3--5-----------------0-3-3--------------------|--------------------|
-----|-0-1-1--3-----------------0-1-1--------------------|--------------------|
-----|-x-x-x--x-----------------x-x-x--0-----------------|--------------------|
   Pre Chorus Pt 2

-----|------------------------------|--|--------------------------------------|
-----|------------------------------|--|--------------------------------------|
-----|------------------------------|--|--------------------------------------|
-----|------------------------------|--|--------------------------------------|
-----|-3b---------3-3b-----------3--|--|--------------------------------------|
-----|-----0--3-5-------0-0--3-5----|--|--------------------------------------|
  Chorus

------|---------------------------------------------------------x----------|--|
------|---------------------------------------------------------4/5-vvvvv--|--|
------|---------------------------------------------------------3/4-vv-----|--|
------|-7/10\------0-----------------7/10\-----0---------------------------|--|
------|--------3\---------------------------3\-----------------------------|--|
------|----------------------------------------------7/10\-3---------------|--|
  G2

------|---------------------------------------------------------x---------|---|
------|---------------------------------------------------------4/5-vvvvv-|---|
------|---------------------------------------------------------3/4-vv----|---|
------|--------------------------0----------------------------------------|---|
------|-12/15\-----------------------12/15\-------------------------------|---|
------|--------10\-12---7/10\-3--0----------10\-12---7/10\-3--------------|---|
  G3

------|--------2p0----------0-----2p0-----------------2p0-----------0--|------|
------|-3--0-0-----x-3--x-3---x-0-----x-0------3p0--0-----x-0--x-3-----|------|
------|----------------------------------------------------------------|------|
------|----------------------------------------------------------------|------|
------|-----------------------------------3-3--------------------------|------|
------|----------------------------------------------------------------|------|
  G1 Interlude beginning palm mute all

------|-----------2p0------------------------2p0------------0--|--|-----------|
------|-----3p0-0-----0-3p0-0-3--------3p0-0-----0-3p0-0-3-----|--|-----------|
------|--------------------------------------------------------|--|-----------|
------|--------------------------------------------------------|--|-----------|
------|-0h3------------------------0h3-------------------------|--|-----------|
------|--------------------------------------------------------|--|-----------|
  G1 Interlude                     PM.

------|----------------------------------------------|------------------------|
------|----------------------------------------------|------------------------|
------|---7-6-7---6-7-9----11\-7--4-----7-6-7--------|------------------------|
------|---------------------------------0-0-0--------|------------------------|
------|----------------------------------------------|------------------------|
------|----------------------------------------------|------------------------|
  G2 Interlude                          P.M..


------|-7---------7\-5-----7\-5\----------6/7--------|------------------------|
------|----------------5---------5-------------------|------------------------|
------|----------------------------------------------|------------------------|
------|----------------------------------------------|------------------------|
------|----------------------------------------------|------------------------|
------|----------------------------------------------|------------------------|
  G3 Interlude

------|------|-------------x------|-------------------------------------------|
------|------|-------------0------|-------------------------------------------|
------|------|-------------7\6----|-------------------------------------------|
------|------|----------0---------|-------------------------------------------|
------|------|----------5---------|-------------------------------------------|
------|------|-7/10\-3--x---------|-------------------------------------------|
  G1   Chorus  End





Comments


Popular Army Of Anyone tabs & chords
Disappear Bass Tabs
Father Figure Bass Tabs
Goodbye Bass Tabs
This Wasn't Supposed To Happen Bass Tabs
Father Figure Tabs
Father Figure 1 Tabs
Good Time To Loosen Tabs
Goodbye 1 Tabs
Leave It Tabs
A Better Place Ukulele


Song lyrics



↑ Back to top | Tablatures and chords are parodies/interpretations of the original songs. You may use it for private study, scholarship, research or language learning purposes only
© 2014 AZChords.com Contact us | Privacy policy | DMCA | Add/correct tabs | Request tabs | Top 50 tabs