>
 >
Leave It

Leave It Guitar Tabs

Army Of Anyone - Leave It chords, tabs, tablatures, lyrics

Guitar lessons | Add/correct | Request | Top 50 tabs Artists:  A B C D E F G H I J K L M N O P Q R S T U V W X Y Z 0-9

Leave It Guitar Tabs – Army Of Anyone

CD, Sheet music, Poster

Do you like Leave It? Share with your friends now
Tabs


h hammer on
p pull off
b bend
r release bend
/ slide up
\ slide down
d strum down
u strum up

Standard Tuning

-------|------------------------------|--|------------------------------------|
-------|-------------------------3----|--|------------------------------------|
-------|-0-2p0---0-5p4------2-------2-|--|------------------------------------|
-------|-------4-------3/4----4-------|--|------------------------------------|
-------|------------------------------|--|------------------------------------|
-------|------------------------------|--|------------------------------------|
   Intro

-------|---------------------------------------------|------------------------|
-------|-----------------------5/8-5-----------------|------------------------|
-------|-4--6--7--4---6--6-6-6--------6-----------6--|------------------------|
-------|-5--7--7--5---7--7-7-7--------7--7---7----7--|------------------------|
-------|-----------------------------------7---7-----|------------------------|
-------|---------------------------------------------|------------------------|
   Riff 1 (Arranged for 1 guitar)

-------|-----------------------x-x-x----------------|-------------------------|
-------|-----------------------5/8\5-------------\--|-------------------------|
-------|-4--6--7--4---6--6-6-6-6/9\6--6----------\--|-------------------------|
-------|-5--7--7--5---7--7-7-7--------7--7---7------|-------------------------|
-------|-----------------------------------7---7----|-------------------------|
-------|--------------------------------------------|-------------------------|
   Riff 2

-------|---------------|--|----------------|----------------------------------|
-------|---------------|--|----------------|----------------------------------|
-------|-7--7--x-x-6---|--|-7--7--x-x-6----|----------------------------------|
-------|-7--7--x-x-7---|--|-7--7--x-x-7----|----------------------------------|
-------|---------------|--|----------------|----------------------------------|
-------|---------------|--|----------------|----------------------------------|
   Verse d  d  d u d

--------|---------------------------------------------------------------------|
--------|-----------------------5/8-5-----------------------------------------|
--------|-4--6--7--4---6--6-6-6--------6-----------6---4--6--7--4---6--6-6-6--|
--------|-5--7--7--5---7--7-7-7--------7--7---7----7---5--7--7--5---7--7-7-7--|
--------|-----------------------------------7---7-----------------------------|
--------|---------------------------------------------------------------------|
   Chorus d  d  d  d   d  u d u d   d  d  u d u d  d

-x-x-x-------------------|--------|-------|-------|------|---------|-------|--|
-5/8\5-------------------|--------|-------|-------|------|---------|-------|--|
-6/9\6---6-----------6---|--------|-------|-------|------|-0-2p0---|-------|--|
---------7--7---7----7---|--------|-------|-------|------|-------4-|-------|--|
--------------7---7------|--------|-------|-------|------|---------|-------|--|
-------------------------|--------|-------|-------|------|---------|-------|--|
                           Riff 1   Riff 2  Intro Ver w/intro end    Chorus

--------|---------------------------------------------------|-----------------|
--------|---5------5------3------3------5------3------3-----|-----------------|
--------|---6------4------4------2------4------4------2-----|-----------------|
--------|---7------6------5------4------6------5------4-----|-----------------|
--------|---7------x------5-------------x------5------------|-----------------|
--------|----------5--------------------5-------------------|-----------------|
     G1 Strum Chords(d ddu ud dudu)     -

--------|---------------------------------------------------|-----------------|
--------|---------------------------------------------------|-----------------|
--------|----------4------4------2------4------4------2-----|-----------------|
--------|----------6------5------4------6------5------4-----|-----------------|
--------|---------------------------------------------------|-----------------|
--------|---------------------------------------------------|-----------------|
     G2

-------|-------x------------x---|--|------------------------------------------|
-------|-3-----3------3-----3---|--|------------------------------------------|
-------|---2---2--2-----2---2---|--|------------------------------------------|
-------|-----4------------4-----|2x|------------------------------------------|
-------|------------------------|--|------------------------------------------|
-------|------------------------|--|------------------------------------------|
      G1

-------|-------x-------|--|---------------------------------------------------|
-------|-3-----3----3--|--|---------------------------------------------------|
-------|---2---2--2----|--|---------------------------------------------------|
-------|-----4---------|--|---------------------------------------------------|
-------|---------------|--|---------------------------------------------------|
-------|---------------|--|---------------------------------------------------|
  Interlude G1 (G2 plays intro)

-------|-----------------|----------------------------------------------------|
-------|-----------------|----------------------------------------------------|
-------|-----------------|----------------------------------------------------|
-------|-14/17--16--11---|----------------------------------------------------|
-------|-----------------|----------------------------------------------------|
-------|-----------------|----------------------------------------------------|
      G3

-------|----------------------------------------------------------------------|
-------|----------------------------------------------------------------------|
-------|----------7/9--5--7\2--2-5\2-7\5-2--7/9-7/9vv--9/16vv--16/17-16--14\--|
-------|-7--\-----------------------------------------------------------------|
-------|----------------------------------------------------------------------|
-------|----------------------------------------------------------------------|
      Solo G4

------------------------|---------|-x-x-x-------|-----------------------------|
------------------------|---------|-5/8\5-------|-----------------------------|
-12-12/14-\-7/9\7/9--vv-|---------|-6/9\6--6----|-----------------------------|
------------------------|---------|--------7----|-----------------------------|
------------------------|---------|-------------|-----------------------------|
------------------------|---------|-------------|-----------------------------|
                          Chorus   End





Comments


Popular Army Of Anyone tabs & chords
Disappear Bass Tabs
Father Figure Bass Tabs
A Better Place Chords
Ain't Enough Tabs
Disappear Tabs
Father Figure 1 Tabs
Goodbye 1 Tabs
It Doesn't Seem To Matter Tabs
Stop Look And Listen Tabs
A Better Place Ukulele


Song lyrics



↑ Back to top | Tablatures and chords are parodies/interpretations of the original songs. You may use it for private study, scholarship, research or language learning purposes only
© 2014 AZChords.com Contact us | Privacy policy | DMCA | Add/correct tabs | Request tabs | Top 50 tabs