>
 >
Generation

Generation Guitar Tabs

Army Of Anyone - Generation chords, tabs, tablatures, lyrics

Guitar lessons | Add/correct | Request | Top 50 tabs Artists:  A B C D E F G H I J K L M N O P Q R S T U V W X Y Z 0-9

Generation Guitar Tabs – Army Of Anyone

CD, Sheet music, Poster

Do you like Generation? Share with your friends now
Tabs


b bend
r release bend
/ slide up
/slide down
d strum down
u strum up
m mute

Standard Tuning

------|-------------|--|------------------------------------------------------|
------|-------------|--|------------------------------------------------------|
------|-7/9----9/14-|--|------------------------------------------------------|
------|-------------|--|------------------------------------------------------|
------|-------------|--|------------------------------------------------------|
------|-------------|--|------------------------------------------------------|
        Background G3 G4 (Intro and verse pt 2)

------|------------------------------|--|---------------------------------|---|
------|------------------------------|--|---------------------------------|---|
------|------------------------------|--|---------------------------------|---|
------|-2-2-2--2-2--2-2-2------------|--|-2-2-2--2-2----------------------|---|
------|-2-2-2--2-2--2-2-2--5-5-------|--|-2-2-2--2-2----------------------|---|
------|-x-x-x--x-x--x-x-x--3-3-5-5-5-|--|-x-x-x--x-x---0-7-10-7-6-5-3-5-0-|---|
 G1 G2  d u dm d um u d um u d u d u                   G2 in middle of verse

-------|------------------------------|---------------------------------------|
-------|------------------------------|---------------------------------------|
-------|-4-4-4--4-4--4---4--4-4-4-4---|---------------------------------------|
-------|-2-2-2--2-2--2---2--2-2-2-2---|---------------------------------------|
-------|------------------------------|---------------------------------------|
-------|------------------------------|---------------------------------------|
  G2 Verse Pt.2

-------|-0-|--|-0-|--|-0-|--|--------5-------|--------------|
-------|-x-|--|-x-|--|-x-|--|---5------------|--------------|
-------|-5-|--|-2-|--|-5-|--|-4---4----------|--------------|
-------|-5-|--|-2-|--|-5-|--|----------------|--------------|
-------|-3-|--|-0-|--|-3-|--|----------------|--------------|
-------|---|--|---|--|---|--|----------------|--------------|
  Interlude Chords Strum  Ending>>>>>>>>>>>>>>>>

-----------|-----------------------------|------------------------------------|
-----------|-----------------------------|------------------------------------|
-----------|-----------------------------|------------------------------------|
-----------|-------x--x--x--x--x-x-x-x-x-|------------------------------------|
-----------|-------5--7--5--7--7-7-5-5-5-|------------------------------------|
-----------|-0-3-5-0--0--0--0--5-5-3-3-3-|------------------------------------|
   Chorus    d u d u  u  u  u  u d u d u

-------|----------------------------------------------------------------------|
-------|----------------------------------------------------------------------|
-------|-7/9-9/11-11/12vvv---7/9-9/14vvv---18/19-19--18-18--16-16--14-14--16--|
-------|----------------------------------------------------------------------|
-------|----------------------------------------------------------------------|
---15\-|----------------------------------------------------------------------|
      Solo Live

------------------------------------------------------------------------------|
--------------------------------------16-17-18/21-18/21--16-17-17/21-16-17-18-|
-14-14-16-12----16-14-14-16-12br-12/------------------------------------------|
-------------14---------------------------------------------------------------|
------------------------------------------------------------------------------|
------------------------------------------------------------------------------|


---------------------------16b17--r16---|-------------------------------------|
-/21-18/21--16-17-16b/-18---------------|-------------------------------------|
----------------------------------------|-------------------------------------|
----------------------------------------|-------------------------------------|
----------------------------------------|-------------------------------------|
----------------------------------------|-------------------------------------|


-------|--------------------------------|-------------------------------------|
-------|--------------------------------|-------------------------------------|
-------|--------------------------------|-------------------------------------|
-------|-------x--x--x--x------x-x-x-2\-|-------------------------------------|
-------|-------5--7--5--7------5-5-5-2\-|-------------------------------------|
-------|-0-3-5-0--0--0--0--5br-3-3-3-x--|-------------------------------------|
   Out                                 m





Comments


Popular Army Of Anyone tabs & chords
Father Figure Bass Tabs
Disappear Tabs
Disappear 1 Tabs
Father Figure Tabs
Father Figure 1 Tabs
Goodbye Tabs
Goodbye 1 Tabs
It Doesn't Seem To Matter Tabs
Used To Know Her Tabs
A Better Place Ukulele


Song lyrics



↑ Back to top | Tablatures and chords are parodies/interpretations of the original songs. You may use it for private study, scholarship, research or language learning purposes only
© 2014 AZChords.com Contact us | Privacy policy | DMCA | Add/correct tabs | Request tabs | Top 50 tabs