>
 >
A Better Place

A Better Place Guitar Tabs

Army Of Anyone - A Better Place chords, tabs, tablatures, lyrics

Guitar lessons | Add/correct | Request | Top 50 tabs Artists:  A B C D E F G H I J K L M N O P Q R S T U V W X Y Z 0-9

A Better Place Guitar Tabs – Army Of Anyone

CD, Sheet music, Poster

Do you like A Better Place? Share with your friends now
Bass TabsChordsTabsUkulele
-----------------------------------------------------------------------------#

b bend
r release bend
/ slide up
\ slide down
h hammer on
p pull off
A arpeggio

Standard Tuning

----------|-x----------|--|---------------------------------------------------|
----------|-10---------|--|---------------------------------------------------|
----------|-9----------|--|---------------------------------------------------|
----------|-10---------|2x|---------------------------------------------------|
----------|-12---------|--|---------------------------------------------------|
----------|-x----------|--|---------------------------------------------------|
  G2 Intro  A

----------|------------|--|---------------------------------------------------|
----------|------------|--|---------------------------------------------------|
----------|-5----------|--|---------------------------------------------------|
----------|-7----------|2x|---------------------------------------------------|
----------|------------|--|---------------------------------------------------|
----------|------------|--|---------------------------------------------------|
  G1 Intro Strum

------|-------------------|---------------------------------------------------|
------|-------------------|---------------------------------------------------|
------|-5---5---2---2--1--|---------------------------------------------------|
------|-7---5---3---2--2--|---------------------------------------------------|
------|-------------------|---------------------------------------------------|
------|-------------------|---------------------------------------------------|
  Verse Strum Chords

------|------------|--|----------------------x--x--x--x-|---------------------|
------|------------|--|----------------------8--7--5--7-|---------------------|
------|-2-----2----|--|--7--------7----------7--7--7--7-|---------------------|
------|-2-----3----|--|--5--------7---------------------|---------------------|
------|------------|--|---------------------------------|---------------------|
------|------------|--|---------------------------------|---------------------|
  G1 Pre Chorus

------|-------------------------------------------------------------|---------|
------|-------------------------------------------------------------|---------|
------|-7/9-9-9-9-9-9-5--5-5--5-5-5-5-5/7-7-7-7-7-7-2--2-2--2-2-2-2-|---------|
------|-7/9-9-9-9-9-9-5--5-5--5-5-5-5-5/7-7-7-7-7-7-2--2-2--2-2-2-2-|---------|
------|-------------------------------------------------------------|---------|
------|-------------------------------------------------------------|---------|
  G1 Chorus

------|-----------|--|--------------------------------------------------------|
------|-------0---|--|--------------------------------------------------------|
------|---5-------|--|--------------------------------------------------------|
------|-7---7-----|3x|--------------------------------------------------------|
------|-----------|--|--------------------------------------------------------|
------|-----------|--|--------------------------------------------------------|
  G2 2nd Verse

--------|---------------------------------------------------------------------|
--------|---------------------------------------------------------------------|
--------|-------12----12-14-14v--14v--14-12-\-9v--7p5-7b9--7br-5--------------|
--------|-12/14----14--------------------------------------------7vv-5/7-10p7-|
--------|---------------------------------------------------------------------|
--------|---------------------------------------------------------------------|
  Solo Live Version

------------------------------------------------------------------------------|
------------------------------------------------------------------------------|
----------------------------5-7-9-7/9br-9-7/9br\7b8/9vv-------12-14-14/17-14/-|
-10b11-10br-7--12br-10-7--7-----------------------------12/14-----------------|
------------------------------------------------------------------------------|
------------------------------------------------------------------------------|


------------------------------------------------------------------------------|
---------10--10/13------------------------------------------------------------|
-16br-14------------14-17--/--17-14-17-19b-r-14vv--19b-r-19p17-17b-17h19-17/--|
------------------------------------------------------------------------------|
------------------------------------------------------------------------------|
------------------------------------------------------------------------------|
                             m

--------17p15--15/17-15----15/17-15-----------------|------------|------------|
-----17-----------------17----------17--17----------|------------|------------|
-19-------------------------------------19b20-r-b---|------------|------------|
----------------------------------------------------|------------|------------|
----------------------------------------------------|------------|------------|
----------------------------------------------------|------------|------------|
   m                                                  Pre Chorus

--|---------------------------------------------------------------------------|
--|-3/12vvv-13vv-13/15\13-12vv-12/14\12-10vv-10/12\10-9vv-15/17\15-15vv-15/17-|
--|---------------------------------------------------------------------------|
--|---------------------------------------------------------------------------|
--|---------------------------------------------------------------------------|
--|---------------------------------------------------------------------------|
    G2 Chorus

-------------------------15/17-17-17-16b-|-------------------------|----------|
-\15-14vv-15/17-17-19bvv-----------------|-------------------------|----------|
-----------------------------------------|-------------------------|----------|
-----------------------------------------|-------------------------|----------|
-----------------------------------------|-------------------------|----------|
-----------------------------------------|-------------------------|----------|
                                           G3 Repeats end on 19bvv





Comments


Popular Army Of Anyone tabs & chords
Disappear Bass Tabs
It Doesn't Seem To Matter Bass Tabs
This Wasn't Supposed To Happen Bass Tabs
Disappear Tabs
Generation Tabs
Goodbye Tabs
Goodbye 2 Tabs
It Doesn't Seem To Matter Tabs
Leave It Tabs
Used To Know Her Tabs


Song lyrics



↑ Back to top | Tablatures and chords are parodies/interpretations of the original songs. You may use it for private study, scholarship, research or language learning purposes only
© 2014 AZChords.com Contact us | Privacy policy | DMCA | Add/correct tabs | Request tabs | Top 50 tabs