» » »

Arlo Guthrie, Alice's Restaurant Tabs (ver.1)

Artists:  A B C D E F G H I J K L M N O P Q R S T U V W X Y Z # 

Alice's Restaurant Tabs (ver.1)

Arlo Guthrie Tabs
 Rating:
4/5 (4 votes)
Alice's Restaurant lessons Tabs too difficult? Try these video lessons and learn fast
                

Notes: Capo on the second fret

-------------0-----------0------------5-------3------0----|
-0---1---3------------3-----------------------------------|
-------------------0--------------------------------------|
----------------2------------------2----------------------|
-----0---2---3--------2-----1--0----------0------0--------|
-3--------------------------------------------------------|


-------0---------3---0------------------0----------0------|
-2//3-----3---------------1----0--1--3----------3---------|
-------------5-------------------------------0------------|
-------------------------------------------2--------------|
-4//5---------------------3-------0--2--3-------2-----1-0-|
-----------------3-------------3--------------------------|

----5----3----0------------------0--------------0---------|
------------------2//3--3-----3-----0--1--2--3------------|
---------------------------5-------------------------0----|
-2----------------------4--------------------------2------|
------0----0------4//5-----------------0--1--2--3---------|
------------------------------------3---------------------|

----0-----0--0----0--3---0----------------------------------|
-3------------------------------0-----0--1--1----1---3--1-3-|
-----------------------------2-----2------------------------|
------------------------------------------------------------|
-2-----2--3-----3-------------------------------------------|
-----------------------------1-----------------2---2--------|

-0------------0-----------5-----3----0--------0-----3-0-----|
-----------3----------------------------2//3----3--------1--|
-------0------------------------------------------5---------|
----2-------------------2-----------------------------------|
-3---------2-----1--0--------0----0-----4//5-------------3--|
----------------------------------------------------3-------|

That's it. It repeats this for about 20 minutes, except for the crescendo.

for the crescendo, use the following chord, and play it every fret up until
the second shown chord

Chord 1: x-x-1-2-1-2
Chord 2: x-x-11-12-11-12
            
Submit corrections

comments powered by Disqus
↑ Back to top | Arlo Guthrie Tabs for Alice's Restaurant. Lyrics for acoustic guitar and electric guitar. Tablatures and chords are parodies/interpretations of the original songs. You may use it for private study, scholarship, research or language learning purposes only