» » »

Ari Hest, Someone To Tell Chords (ver.1)

Artists:  A B C D E F G H I J K L M N O P Q R S T U V W X Y Z # 

Someone To Tell Chords (ver.1)

Ari Hest Tabs
Rating:
5/5 (2 votes)
Someone To Tell lessons Tabs too difficult? Try these video lessons and learn fast
                Capo on 1st fret

Intro
-0-----0-----0----0----|
-1-----1-----1----1----|
-2-----0-----2----0----|
-3-----2-----3----2----|
-------3----------3----|
-----------------------|

Part1
-2---1--0-------------------------|
-3---3--3---------1--1--0--1------|
-0---0--0---(X2)--2--0--0--2------|
-0---0--0---------3--2--1--0------|
-x---3--3-------------------------|
-3--------------------------------|

Part2         Bridge   "Long way from Home..
-2--1--0----------------------------0-|
-3--3--3-------1--1--0--1--1--1--0--3-|
-0--0--0--(X2)-2--0--0--0--2--0--0--2-|
-0--0--0-------3--2--1--2--3--2--1--0-|
-x--3--3------------------------------|
-3------------------------------------|

Part4 "Lend me your....
-2-----0----0-0-2-0-----0----2-----0----0-0-2-0--0----------|
-3--3--3----3-3-3-1--0--3----3--3--3----3-3-3-1--3----------|
-0--0--0----0-2-0-0--0--2----0--0--0----0-2-0-0--2----------|
-0--0--2----2-0-0-2--1--0----0--0--2----2-0-0-2--0----------|
-0--3--2----2-x-0-0----------0--3--2----2-x-0-0-------------|
-3-----0----0-2-3------------3-----0----0-2-3---------------|

"Someone To Tell"
Part1
At my foot is a diary
A lone piece of paper
There the results of my investigations
Part2
I'm searching for takers
I want you to ache with my aching
Bridge
I'm a long way from home, carrying a message
Eager to send that message to you

Part 4 Chorus
Lend me your ears tonight
I'm venturing out, I'm leaving my shell
I just want you to hear me out
And it just won't feel right
Without someone to tell

Part 1
Someone to help me through
Someone to walk in my worn shoes
To disconnect me from my stubborn shadow
PaRT2
To convince me that I have grown
And I'll set you free from your own
(Bridge)
So run from your heartache
Run away from your shame
We will bury the troubles we've been fighting to tame
Part 4
Lend me your ears tonight
I'm venturing out, I'm leaving my shell
I just want you to hear me out
And it just won't feel right
Without someone to tell
            
Submit corrections

comments powered by Disqus
↑ Back to top | Ari Hest Chords for Someone To Tell. Lyrics for acoustic guitar and electric guitar. Tablatures and chords are parodies/interpretations of the original songs. You may use it for private study, scholarship, research or language learning purposes only