» » »

Little Lies Tabs (ver.1)

Artists:  A B C D E F G H I J K L M N O P Q R S T U V W X Y Z # 

Little Lies Tabs (ver.1)

Ari Hest
Rating:
5/5 (2 votes)

Hard to play? Try these video lessons and learn fast.
                Capo on 7th fret


Intro
e-0--0--0-------------|
b-3--3--3-------------|
g-0--4--0---------0---|
d-4--0--2--(x2)--4----|
a-2-----3-------5---5-|
e-0--3----------------|

Part 1 "If i could...
-0--0--0--0--0-------------|
-3--3--3--3--3-------------|
-0--0--0--0--0-------------|
-4--4--4--4--0--(x2)-------|
-2--5--2--5--3-------------|
-0-----0-------------------|

Part 2"Tell me lies....
e-0--0--0-------------|
b-3--3--3-------------|
g-0--4--0---------0---|
d-4--0--2--(x2)--4----|
a-2-----3-------5---5-|
e-0--3----------------|

Part 1
If I could turn the page
In time then I'd rearrange just a day or two
Close my, close my, close my eyes

But I couldn't find a way
So I'll settle for one day to belive in you
Tell me, tell me, tell me lies

Part2
Tell me lies
Tell me sweet, little lies
(Tell me lies, tell me, tell me lies)
Oh, no, no you can't disguise
(You can't disguise, no you can't disguise)
Tell me lies
Tell me sweet little lies

Part1
Although I'm not making plans
I hope that you understand there's a reason why
Close your, close your, close your eyes

No more broken hearts
We're better off apart, let's give it a try
Tell me, tell me, tell me lies

Part2
Tell me lies
Tell me sweet, little lies
(Tell me lies, tell me, tell me lies)
Oh, no, no you can't disguise
(You can't disguise, no you can't disguise)
Tell me lies
Tell me sweet little lies
            
Hard to play? Try these video lessons and learn fast. | Correct




comments powered by Disqus
↑ Back to top | Tablatures and chords are parodies/interpretations of the original songs. You may use it for private study, scholarship, research or language learning purposes only