>
 >
I've Got You

I've Got You Guitar Tabs

Ari Hest - I've Got You chords, tabs, tablatures, lyrics

Guitar lessons | Add/correct | Request | Top 50 tabs Artists:  A B C D E F G H I J K L M N O P Q R S T U V W X Y Z 0-9

I've Got You Guitar Tabs – Ari Hest

CD, Sheet music, Poster

Do you like I've Got You? Share with your friends now
Tabs
Ari Hest

Arranged by Prem Midha

CAPO on 4

Almost all of these chords are arpeggiated in the same way.  If you listen to the 
or watch my version, you should be able to figure it out pretty easily:


E||-------3--3-----------|---------------|---------------|---------------|
B||-------3--3-----------|--3------------|--3------------|--3------------|
G||--2g4--------4--2--0--|--0------------|--0------------|--4------------|
D||----------------------|--0------------|--0------------|--0------------|
A||----------------------|---------------|---------------|---------------|
E||----------------------|--3------------|--3------------|--4------------|


---------------|---------------|---------------|---------------|---------------|
--3------------|--5------------|--5------------|--5------------|--5------------|
--4------------|--5------------|--5------------|--6------------|--6------------|
--0------------|--5------------|--5------------|--5------------|--5------------|
---------------|---------------|---------------|---------------|---------------|
--4------------|--5------------|--5------------|--6------------|--6------------|


---------------|---------------|----------------|---------------|
--7------------|--8------------|---8------------|--8------------|
--7------------|--8------------|---9------------|--8------------|
--5------------|--7------------|--10------------|--7------------|
---------------|---------------|----------------|---------------|
--7------------|--7------------|---8------------|--8------------|


---------------|---------------|---------------|---------------|---------------|
--8------------|--8------------|--5------------|--3------------|--3------------|
--7------------|--7------------|--5------------|--5------------|--0------------|
--0------------|--6------------|--5------------|--4------------|--0------------|
---------------|--7------------|---------------|--5------------|---------------|
--7------------|---------------|--5------------|---------------|--3------------|


---------------|---------------|---------------|---------------|---------------|
--3------------|--3------------|--3------------|--5------------|--5------------|
--0------------|--4------------|--4------------|--5------------|--5------------|
--0------------|--0------------|--0------------|--5------------|--5------------|
---------------|---------------|---------------|---------------|---------------|
--3------------|--4------------|--4------------|--5------------|--5------------|


---------------|---------------|---------------|---------------|
--5------------|--5------------|--7------------|--8------------|
--6------------|--6------------|--7------------|--8------------|
--5------------|--5------------|--5------------|--7------------|
---------------|---------------|---------------|---------------|
--6------------|--6------------|--7------------|--7------------|


----------------|---------------|---------------|---------------|
---8------------|--8------------|--8------------|--8------------|
---9------------|--8------------|--7------------|--7------------|
--10------------|--7------------|--0------------|--6------------|
----------------|---------------|---------------|--7------------|
---8------------|--8------------|--7------------|---------------|


---------------|---------------|---------------|----------------|
--5------------|--3------------|--5------------|--3------1------|
--5------------|--5------------|--4------------|--2------0------|
--5------------|--4------------|--5------------|--4------2------|
---------------|--5------------|--3------------|--2------0------|
--5------------|---------------|---------------|----------------|


---------------|---------------|---------------|---------------|
--3------------|--3------------|--1------------|--0------------|
--0------------|--0------------|--2------------|--2------------|
--0------------|--0------------|--2------------|--1------------|
---------------|---------------|---------------|--2------------|
--3------------|--3------------|--2------------|---------------|


------------------|------------------|---------------|---------------|
--0-------0----0--|--0----0--0----0--|--5------------|--2------------|
--0-------0----0--|--0----0--0----0--|--4------------|--3------------|
--2-------2----4--|--5----4--2----0--|--5------------|--2------------|
------------------|------------------|--4------------|---------------|
--0----0----------|------------------|---------------|--2------------|


---------------|---------------|---------------|---------------|---------------|
--3------------|--0------------|--1------------|--1------------|--3------------|
--2------------|--1------------|--0------------|--0------------|--5------------|
--3------------|--0------------|--1------------|--1------------|--4------------|
--2------------|---------------|--0------------|--0------------|--5------------|
---------------|--0------------|---------------|---------------|---------------|


---------------|---------------|---------------|---------------|---------------|
--3------------|--3------------|--3------------|--3------------|--3------------|
--5------------|--0------------|--0------------|--4------------|--4------------|
--4------------|--0------------|--0------------|--0------------|--0------------|
--5------------|---------------|---------------|---------------|---------------|
---------------|--3------------|--3------------|--4------------|--4------------|


---------------|---------------|---------------|---------------|---------------|
--5------------|--5------------|--5------------|--5------------|--7------------|
--5------------|--5------------|--6------------|--6------------|--7------------|
--5------------|--5------------|--5------------|--5------------|--5------------|
---------------|---------------|---------------|---------------|---------------|
--5------------|--5------------|--6------------|--6------------|--7------------|


---------------|----------------|---------------|---------------|
--8------------|---8------------|--8------------|--8------------|
--8------------|---9------------|--8------------|--7------------|
--7------------|--10------------|--7------------|--0------------|
---------------|----------------|---------------|---------------|
--7------------|---8------------|--8------------|--7------------|


---------------|---------------|---------------|---------------|---------------|
--8------------|--5------------|--3------------|--3------------|--3------------|
--7------------|--5------------|--5------------|--0------------|--0------------|
--6------------|--5------------|--4------------|--0------------|--0------------|
--7------------|---------------|--5------------|---------------|---------------|
---------------|--5------------|---------------|--3------------|--3------------|


---------------|---------------|---------------|---------------|---------------|
--3------------|--3------------|--5------------|--5------------|--5------------|
--4------------|--4------------|--5------------|--5------------|--6------------|
--0------------|--0------------|--5------------|--5------------|--5------------|
---------------|---------------|---------------|---------------|---------------|
--4------------|--4------------|--5------------|--5------------|--6------------|


---------------|---------------|---------------|----------------|
--5------------|--7------------|--8------------|---8------------|
--6------------|--7------------|--8------------|---9------------|
--5------------|--5------------|--7------------|--10------------|
---------------|---------------|---------------|----------------|
--6------------|--7------------|--7------------|---8------------|


---------------|---------------|---------------|---------------|---------------|
--8------------|--8------------|--8------------|--5------------|--3------------|
--8------------|--7------------|--7------------|--5------------|--5------------|
--7------------|--0------------|--6------------|--5------------|--4------------|
---------------|---------------|--7------------|---------------|--5------------|
--8------------|--7------------|---------------|--5------------|---------------|


---------------|----------------|---------------|---------------|
--5------------|--3------1------|--3------------|--3------------|
--4------------|--2------0------|--0------------|--0------------|
--5------------|--4------2------|--0------------|--0------------|
--3------------|--2------0------|---------------|---------------|
---------------|----------------|--3------------|--3------------|


---------------|---------------|------------------|------------------|
--1------------|--0------------|--0-------0----0--|--0----0--0----0--|
--2------------|--2------------|--0-------0----0--|--0----0--0----0--|
--2------------|--1------------|--2-------2----4--|--5----4--2----0--|
---------------|--2------------|------------------|------------------|
--2------------|---------------|--0----0----------|------------------|


---------------|---------------|---------------|---------------|---------------|
--5------------|--2------------|--3------------|--0------------|--1------------|
--4------------|--3------------|--2------------|--1------------|--0------------|
--5------------|--2------------|--3------------|--0------------|--1------------|
--4------------|---------------|--2------------|---------------|--0------------|
---------------|--2------------|---------------|--0------------|---------------|


---------------|---------------|---------------|---------------|---------------|
--1------------|--3------------|--3------------|--3------------|--3------------|
--0------------|--5------------|--5------------|--0------------|--0------------|
--1------------|--4------------|--4------------|--0------------|--0------------|
--0------------|--5------------|--5------------|---------------|---------------|
---------------|---------------|---------------|--3------------|--3------------|


---------------|---------------|---------------|---------------|---------------|
--3------------|--3------------|--5------------|--5------------|--5------------|
--4------------|--4------------|--5------------|--5------------|--6------------|
--0------------|--0------------|--5------------|--5------------|--5------------|
---------------|---------------|---------------|---------------|---------------|
--4------------|--4------------|--5------------|--5------------|--6------------|


---------------|---------------|---------------|----------------|
--5------------|--7------------|--8------------|---8------------|
--6------------|--7------------|--8------------|---9------------|
--5------------|--5------------|--7------------|--10------------|
---------------|---------------|---------------|----------------|
--6------------|--7------------|--7------------|---8------------|


---------------|---------------|---------------|---------------|---------------|
--8------------|--8------------|--8------------|--5------------|--3------------|
--8------------|--7------------|--7------------|--5------------|--5------------|
--7------------|--0------------|--6------------|--5------------|--4------------|
---------------|---------------|--7------------|---------------|--5------------|
--8------------|--7------------|---------------|--5------------|---------------|


---------------|---------------|---------------|---------------|
--4------------|--4------------|---------------|---------------|
--3------------|--3------------|--2------------|--3------------|
--5------------|--5------------|--1------------|--1------------|
--3------------|--3------------|--3------------|--3------------|
---------------|---------------|--1------------|--1------------|


----------------||
--2--------3----||
--0--------0----||
--0--------0----||
----------------||
--3--------3----||





Comments


Popular Ari Hest tabs & chords
Come Home Chords
Cranberry Lake Chords
Dead End Driving Chords
Caught Up In Your Love Tabs
Dead End Driving Tabs
Little Lies Tabs
Bird Never Flies Ukulele
Come Home Ukulele
Cranberry Lake Ukulele
Someone To Tell Ukulele


Song lyrics



↑ Back to top | Tablatures and chords are parodies/interpretations of the original songs. You may use it for private study, scholarship, research or language learning purposes only
© 2014 AZChords.com Contact us | Privacy policy | DMCA | Add/correct tabs | Request tabs | Top 50 tabs