» » »

Ari Hest, Guilty Hearts Tabs (ver.1)

Artists:  A B C D E F G H I J K L M N O P Q R S T U V W X Y Z # 

Guilty Hearts Tabs (ver.1)

Ari Hest Tabs
Rating:
3/5 (1 vote)
Guilty Hearts lessons Tabs too difficult? Try these video lessons and learn fast
                Guilty Hearts - Guilty Hearts EP - Ari Hest
Standard Tuning
Based off of Ari's live performances. Can be played on 6 or 12 string. Not 100% but 
close I think. Any suggestions welcome. There are a couple of times where he repeats, just 
and you'll be able to figure it out.
() notate variations to chords or hammer-on, pull-offs in various performances.

1. Verse
E|-2---0---0---0-|
B|-3---1---0---0-|
G|-2---2---0---0-|
D|-0---2---0---2-|
A|-----0---2---2-|
E|---------3---0-|

2. Pre-Chorus
E|-0---2---3---0---2---3---3----|
B|-3---3---3---0---3---3---2(3)-|
G|-0---2---0---0---4---0---0----|
D|-2---0---0---2---4---2---2----|
A|-3-------x---2---2---0---0----|
E|---------3---0----------------|

3. Chorus
E|-3---2(3)-3---2(3)-0---0(3)-3----|
B|-3---3----3---3----3---3----2(3)-|
G|-0---2----0---2----0---0----0----|
D|-0---0----0---0----2---2----2----|
A|-x--------x--------3---2----0----|
E|-3--------3------------0---------|

4. Ending
E|--------------2-|
B|--------------3-|
G|--------------2-|
D|-2-4-2-0------0-|
A|---------2-0----|
E|----------------|

(1) What we get for giving our love
To people that we let go
What we get for investing our years into
People that we outgrow
(2) Surely he hasn’t come to the point
Where he sees straight and
Sitting right here, in damage control
What she has to work with is a

(3) Guilty heart
Worlds apart
They meant to leave behind
Leave behind for good

(1) Through all the months of frustration
She couldn’t tell him why
Guess nothing scared her as much as
The thought of saying goodbye
(2) What ever happened to the idea they’d overcome?
Now he’s not convinced of how to move on
What he has to work with is a

(3) Guilty heart (the unsteady grind)
Worlds apart
They meant to leave behind
Leave behind for good
Leave behind for good

(1)

(2) They know what’s after all this dies down when they’re alone
It’s out of their hands, and they need a way
To dry up all the tears stuck in their

(3)Guilty hearts
Worlds apart
They thought they’d leave behind
Leave behind for good
Leave Behind for good (1)

(4)
            

comments powered by Disqus
↑ Back to top | Ari Hest Tabs for Guilty Hearts. Lyrics for acoustic guitar and electric guitar. Tablatures and chords are parodies/interpretations of the original songs. You may use it for private study, scholarship, research or language learning purposes only