» » »

Consistency Tabs (ver.1)

Artists:  A B C D E F G H I J K L M N O P Q R S T U V W X Y Z # 

Consistency Tabs (ver.1)

Ari Hest
Rating:
5/5 (2 votes)

Hard to play? Try these video lessons and learn fast.
                
Intro
                             *harmonics*
e----------------7---0---0----*12*--|
b---------8------7---0---3----*12*--|
g---------7------7---4---2----*12*--|
d---------x---5------0---0----*12*--|
a-----/7--7----------x---x----------|
e---0----------------3---2----------|

Part1 "Why must it...
-0-----------|
-8--7--3--3--|
-0--7--2--2--|
-9--7--0--0--|(repeat this or intro)
-7--5--x--x--|
-0-----3--2--|

Part2 "Well I...
-7---2---3---2---0------|
-8---3---5---3---1------|
-7---2---4---2---0------|
-9---4---5---4---2-(x4)-|
-7---2---3---2---0------|
------------------------|

Part3 "What if...
-0---5------0---0---0--------------3------|
-0---0------7---5---0------7---3---0------|
-0---0------0---0---0------0---0---0------|
-2---4-(x2)-5---4---2-(x2)-5---4---2-(x4)-|
-3---5------7---5---3------7---5---3------|
------------------------------------------|

Part 1
Why must it always be stop and go?
Where in this life can I find constant flow?
Inconsistency on a larger scale
Impersistence forcing me to bail out
Look left look right look left again before you take a giant step
All this side to side takes me out of my groove makes me feel inept
I toe the straight line for one short time
Forget about regrets and doubts that
Make me stop on a dime

Part 2
I'm a fool for distraction
Can't keep cool throughout my action
Once in a while I find satisfaction
I have too much care beyond my reach
And too much love that I can't preach
What I really need is consistency

Part1
Everywhere that I go I don't want to be
Cause I keep telling me "You're missing out, gotta move, gotta break on free"
A modern-day busybacksoon
Kind of figures cause I was born in June
The month of moody, happy feet
The people that no one would like to meet
Of wandering no-clues, but why should I have to choose?

Part 2
I'm a fool for distraction
Can't keep cool throughout my action
Once in a while I find satisfaction
I have too much care beyond my reach
And too much love that I can't preach
What I really need is consistency

Part3
What if what I need is just to believe
Day in day out I find I'm searching for the key
My head and heart are too stubborn to agree
Where it begins must lie within me

I've been so busy finding my way
I'm not content with the roles I've been playing
But something occurred to me just the other day
I am who I am come what may
            
Hard to play? Try these video lessons and learn fast. | Correct




comments powered by Disqus
↑ Back to top | Tablatures and chords are parodies/interpretations of the original songs. You may use it for private study, scholarship, research or language learning purposes only