» » »

Ari Hest, Come Home Tabs (ver.1)

Artists:  A B C D E F G H I J K L M N O P Q R S T U V W X Y Z # 

Come Home Tabs (ver.1)

Ari Hest Tabs
 Rating:
4.2/5 (5 votes)
Come Home lessons Tabs too difficult? Try these video lessons and learn fast
1
                e--------x-------------------x-----------------------------x------------------x-------------------------|
b--------x-------------------x-----------------------------x------------------x-------------------------|
g--------4-------------------6-----------------------------5------------------7-------------------------|
d--------5-------------------5-----------------------------5------------------5-------------------------|
a--------x-------------------x-----------------------------x------------------x-------------------------|
E--------3-------------------6-----------------------------5------------------7-------------------------|

e--------x-------------------x-----------------------------x------------------x-----------------x---|
b--------x-------------------x-----------------------------x------------------x-----------------x---|
g--------9-------------------9----------------------------(12)--------------(11)--------------(12)--|
d--------7-------------------7----------------------------(12)--------------(12)--------------(10)--|
a--------x-------------------x-----------------------------x------------------x-----------------x---|
E--------8-------------------9-----------------------------(10)--------------(10)-------------(11)--|

e--------x-------------------x-----------------------------x------------------x---|
b--------x-------------------x-----------------------------x------------------x---|
g-------(12)---------------(12)--------------------------(12)---------------(12)--|
d-------(10)---------------(10)----------------------------9------------------9---|
a--------x-------------------x-----------------------------x------------------x---|
E-------(12)----------------(11)-------------------------(10)-----------------9---|

e--------x-------------------x-----------------------------x------------------x----------------x---|
b--------x-------------------x-----------------------------x------------------x----------------x---|
g--------9-------------------7-----------------------------6------------------5----------------5---|
d--------7-------------------5-----------------------------5------------------5----------------4---|
a--------x-------------------x-----------------------------x------------------x----------------5---|
E--------8-------------------7-----------------------------6------------------5-----------------x--|


Bridge chords: “It’s only 3,000 miles…”

e--------0-------------------0-----------------------------0------------------0-------------------------|
b--------3-------------------1-----------------------------3------------------3-------------------------|
g--------0-------------------4-----------------------------0------------------0-------------------------|

d--------4-------------------2-----------------------------4------------------4--|
a--------2-------------------0-----------------------------2------------------5--|
E-------0-------------------x-----------------------------x------------------x---|

e--------0-------------------0-----------------------------0------------------0--|
b--------3-------------------1-----------------------------3------------------3--|
g--------0-------------------4-----------------------------0------------------0--|
d--------4-------------------2-----------------------------4------------------4--|
a--------2-------------------0-----------------------------3------------------5--|
E--------0-------------------x-----------------------------x------------------x--|
            
Submit corrections

comments powered by Disqus
↑ Back to top | Ari Hest Tabs for Come Home. Lyrics for acoustic guitar and electric guitar. 1 Tablatures and chords are parodies/interpretations of the original songs. You may use it for private study, scholarship, research or language learning purposes only