» » »

Ari Hest, Caught Up In Your Love Tabs (ver.1)

Artists:  A B C D E F G H I J K L M N O P Q R S T U V W X Y Z # 

Caught Up In Your Love Tabs (ver.1)

Ari Hest Tabs
Rating:
5/5 (2 votes)
Caught Up In Your Love lessons Tabs too difficult? Try these video lessons and learn fast
                
Verse chords: “After I said…”

e------0------------------x-----------------------x--------------------------0--|
b------0------------------8-----------------------8--------------------------3--|
g------7------------------7-----------------------9--------------------------4--|
d------5------------------7-----------------------9--------------------------4--|
a------7------------------x-----------------------x--------------------------x--|
E---0-0--------------7--7-------------------8---8------------------------3-3----|

e-------0-----------------x------------------------0---------------------------0--|
b-------3-----------------3------------------------0---------------------------0--|
g-------5-----------------5------------------------5---------------------------7--|
d-------5-----------------4------------------------4---------------------------5--|
a---0--0-------------5--5--------------------6---6---------------------------7----|
E-------x----------------x------------------------x------------------------0--0---|

e------x-----------------x-------------------------x---------------------------x-------------x--|
b------8-----------------8-------------------------8---------------------------x-------------8--|
g------9-----------------8-------------------------7---------------------------4-------------7--|
d------9-----------------8-------------------------7---------------------------3---or-------6---|
a-------x----------------x-------------------------x---------------------------x------------7---|
E---9--9-------------8--8--------------------7---7-------------------------4-4---------0--0-----|

e-------0----------------0--------------------------x--x--|
b-------3----------------3--------------------------3--3--|
g-------5----------------5--------------------------5--5--|
d-------5----------------5--------------------------4--4--|
a----0--0--------------0-0----------------------5--5--5---|
E---------------------------------------------------------|


Chorus chords: “I’m looking out…”

e------x------------------x-----------------------x--------------------------x--|
b------3------------------5-----------------------7--------------------------7--|
g------4------------------5-----------------------7--------------------------7--|
d------4------------------5-----------------------7--------------------------6--|
a------x--------------0--0-----------------------x--------------------------7---|
E---3-3-----------------x-------------------7---7------------------------0-0----|

e-------0----------------0--------------------------x--------------------------x-----------3------x--|
b-------3----------------3--------------------------3--------------------------3-----------4------3--|
g-------5----------------5--------------------------5--------------------------5-----------3------5--|
d-------5----------------5--------------------------4--------------------------4------or--x-------4--|
a----0--0--------------0-0----------------------5--5-----------------------5--5--------3-3----5-5----|
E----------------------------------------------------------------------------------------------------|


Bridge chords: “I don’t care if…”

e-------3----------------3--------------------------x--------------------------x--|
b-------4----------------4--------------------------3--------------------------3--|
g-------3----------------2--------------------------4--------------------------4--|
d-------x----------------x--------------------------4--------------------------4--|
a----3--3--------------3-3-------------------------x--------------------------x---|
E------------------------------------------------3--3-----------------------3--3--|

e-------3----------------3--------------------------x--------------------------x--|
b-------4----------------4--------------------------4--------------------------3--|
g-------3----------------2--------------------------5--------------------------5--|
d-------x----------------x--------------------------5--------------------------4--|
a----3--3--------------3-3-------------------------x--------------------------5---|
E---------------------------------------------------------------------------------|
            

comments powered by Disqus
↑ Back to top | Ari Hest Tabs for Caught Up In Your Love. Lyrics for acoustic guitar and electric guitar. Tablatures and chords are parodies/interpretations of the original songs. You may use it for private study, scholarship, research or language learning purposes only