» » »

Anne Marie Chords (ver.1)

Artists:  A B C D E F G H I J K L M N O P Q R S T U V W X Y Z # 

Anne Marie Chords (ver.1)

Ari Hest
Rating:
0/5 (0 votes)

Hard to play? Try these video lessons and learn fast.
                Once again, only interpretive.  Feel free to email with comments or suggestions.

Capo 1

Riff 1 chord structure
---------------------|-----------------------|
---5---4---3---1-----|---5---4---3---2-------|
---2---2---2---2-----|---2---2---2---2-------|
---------------------|-----------------------|
---------------------|---0-------------------|
---------------------|-----------------------|

Riff 2 chord structure
--------------------|---------------------|
---2---2---2---2----|---2---2---2---2-----|
---2---1---0---3----|---2---1---0---------|
--------------------|---------------------|
--------------------|---------------4-----|
--------------------|---------------------|

Riff1:
It's not your stature
That tilts the scale
It's not your know-how
That whites me pale

||: F#m – Bm7 – D :||
Haven't you noticed, I so often succumb
Playing the novice, I just suck on my thumb
||: E – A – D :||
I'm singing the harmony to the melody you hum
I march like a soldier to the beat of your drum

Chorus:

||: Dm – A – D – Dm :||
It is all in your delivery
But can you help that you belittle me?
F#m – E/G# - Bm7 – D
It's not your fault
F#m – E/G# - Bm7
I feel so small
Dm


Riff 2:
I call to question
This pattern of disease
A predilection
Of yet another harsh decree

||: F#m – Bm7 – D :||
There is a rhythm pulsing out of control
Driving us swiftly away from our goal
||: E – A – D :||
Here in my heart babe, it's carving a hole
Pounding me weak, penetrating my soul

(Repeat Chorus)

Riff 2:
Anne Marie…

Instrumental on ||: F#m – Bm7 – D :|| - ||: E – 
– D :||

||: Dm – A – D – Dm :||
It is all in your delivery
I am trying now to help you see
Are we working towards a better we?
Or am I shouting out a hopeless plea?
It is there in your delivery
I am trying now to make you see

F#m – E/G# - Bm7 - D
It's not your fault
F#m – E/G# - Bm7
I feel so small
Dm

End on Riff 1
            
Hard to play? Try these video lessons and learn fast. | Correct




comments powered by Disqus
↑ Back to top | Tablatures and chords are parodies/interpretations of the original songs. You may use it for private study, scholarship, research or language learning purposes only