» » »

Ari Hest, A Fond Farewell Tabs (ver.1)

Artists:  A B C D E F G H I J K L M N O P Q R S T U V W X Y Z # 

A Fond Farewell Tabs (ver.1)

Ari Hest Tabs
Rating:
5/5 (2 votes)
Hard to play? Try these video lessons and learn fast.
                Standard tuning
Key of E

Part 1 "My mother...
e-0------------9--|
b-0--4-4--9-9--10-|
g-1--6-5-11-10-9--|
d-2--4-4--9-9--11-|
a-2------------9--|
e-0--4-4--9-9-----|

Part 2 "well its try...
-----------0------|
-7-7--9-9--0--7-7-|
-9-8--9-9--6--9-8-|
-7-7--9-8--7--7-7-|
--------9--0------|
-7-7--9-------7-7-|

Part 3 "Beneath the shelt...
-0--0--0--0------|
-0--7--5--0------|
-8--8--6--2-(x3)-|
-9--x--x--1------|
-7--6--4--2------|
-0--0------------|

Part 4 "I will finally...
-0--0-----0-----------|
-0--0--9--0-----------|
-6--6--9--8-----------|
-7--7--9--9-----------|
-0--------------------|
----7--9--7-----------|

Part 5 "Beneath the shelt....
-0--0-----0------|
-0--7--9--0------|
-8--8--9--8------|
-9--x--9--9-(x3)-|
-7--6--x--x------|
-0-----9--7------|

part 6 "say goodbye....
-0--0-----0------|
-5--7--9--0------|
-6--8--9--8------|
-4--6--9--9-(x4)-|
-4--6-----x------|
-------9--7------|


Part1
My mother once told me
The thicker your skin
The better off you'll be when this world brings you down

Part2
Well it's trying to control me
And leave me without hope
In the past I've been burned
But I've lived and I've learned

part3
Beneath the shelter of the pouring rain
In the absence of this fear and pain
I will finally bid my ball and chain
A fond farewell
On the road that leads me to my place
I will rid my heart of past disgrace

Part4
I will finally bid this sluggish pace
A fond farewell

Part 1
When I heard their reservations
When I read their bitter words
I shined a light upon their wisdom no matter how absurd
part 2
And it broke my heard to pieces
And I questioned my own beliefs
My dignity was gone
But it's time to move on

Part5
Beneath the shelter of the pouring rain
In the absence of this fear and pain
I will finally bid my ball and chain
A fond farewell
On the road that leads me to my place
I will rid my heart of past disgrace
part4
I will finally bid this sluggish pace
A fond farewell

part 6
Say goodbye to feeling sorry for myself
To begging others for far too much help
This is my hand, these are the cards that I've been dealt
Only I can make these changes, nobody else
Say goodbye to those sleepless nights
Those corridors with no end in sight
A driven man with these words I write
I'm making peace with my soul tonight

part 3 or 5
Beneath the shelter of the pouring rain
In the absence of this fear and pain
I will finally bid my ball and chain
A fond farewell

On the road that leads me to my place
I will rid my heart of past disgrace
I will finally bid this sluggish pace
A fond farewell
            

comments powered by Disqus
↑ Back to top | Ari Hest Tabs for A Fond Farewell. Lyrics for acoustic guitar and electric guitar. Tablatures and chords are parodies/interpretations of the original songs. You may use it for private study, scholarship, research or language learning purposes only