» » »

Aberdeen Tabs (ver.1)

Artists:  A B C D E F G H I J K L M N O P Q R S T U V W X Y Z # 

Aberdeen Tabs (ver.1)

Ari Hest
Rating:
0/5 (0 votes)

Hard to play? Try these video lessons and learn fast.
                
Verse chords: “When I get out of Aberdeen…”

e--------0---------------------0----------------------------0--------------------------------x---|
b--------8-------------------(10)--------------------------8-------------------------------(10)--|
g--------9--------------------9---------------------------(10)------------------------------9----|
d------(10)-----------------(10)-------------------------(10)--------------or ------------(10)---|
a--------0-------------------8-----------------------------x--------------------------------9----|
E-------x-------------------x---------------------------(10)-------------------------------x-----|


Chorus chords: “Every dollar I have saved…”

e--------3-------------------3-----------------------------3------------------3------------3------------|
b--------1-------------------1-----------------------------1------------------1-------------1-----------|
g--------2-------------------2-----------------------------0------------------0------------0------------|
d--------3-------------------0-----------------------------x------------------3------------2------------|
a--------x-------------------x-----------------------------5------------------0------------0------------|
E-------x-------------------x-----------------------------x------------------x------------x-------------|


Bridge chords: underneath guitar solo

e--------0-------------------0-----------------------------0------------------0--|
b--------1-------------------0-----------------------------1------------------0--|
g--------0-------------------0-----------------------------0------------------0--|
d--------3-------------------3-----------------------------3------------------3--|
a--------x-------------------x-----------------------------0------------------x--|
E-------1-------------------3-----------------------------x------------------3---|

e--------0-------------------0-----------------------------0--|
b--------1-------------------0-----------------------------1--|
g--------0-------------------0-----------------------------0--|
d--------3-------------------3-----------------------------3--|
a--------x-------------------x-----------------------------1--|
E-------1-------------------3-----------------------------x---|
            
Hard to play? Try these video lessons and learn fast. | Correct




comments powered by Disqus
↑ Back to top | Tablatures and chords are parodies/interpretations of the original songs. You may use it for private study, scholarship, research or language learning purposes only