>
 >
To Thou Who Dwellest In The Night

To Thou Who Dwellest In The Night Guitar Tabs

Arcturus - To Thou Who Dwellest In The Night chords, tabs, tablatures, lyrics

Guitar lessons | Add/correct | Request | Top 50 tabs Artists:  A B C D E F G H I J K L M N O P Q R S T U V W X Y Z 0-9

To Thou Who Dwellest In The Night Guitar Tabs – Arcturus

CD, Sheet music, Poster

Do you like To Thou Who Dwellest In The Night? Share with your friends now
Tabs
                     ARCTURUS - TO THOU WHO DWELLEST IN THE NIGHT     
                      From the album ASPERA HIEMS SYMFONIA
                         Copyright 1995 Misanthropy Records


Check Out DEATH WARP With More Transcriptions On It:

Check Out 's Web Page, With More Transcriptions On It:
               /index.html 


To Join The Official 's Death Tab Mailing List Contact Rich at
 

.  - palm mute                  /  - slide up to
\  - slide down to              ~  - vibrato
h  - hammer on                  b  - bend
p  - pull off                        Suffixes for bend
ph - pinch harmonic                   
*  - see comment                      
X  - percussion mute             
@  - slight palm mute           () - ghost note, sustained note
"  - 4 strokes on one note
               

Intro  
|------------------------------------|
|------------------------------------|
|------------------------------------|Gtr1|------------------------------------|
|2--5~---2--5-4-1---4---5-4-1--------|
|-----------------2---2--------------|
|                                    |
|------------------------------------|
|------------------------------------|
|------------------------------------|Gtr2
|4~----------------------------------|
|2~---------------4-1-4-5-4-1~-------|
|-----------------2------------------|

Guitars 1 & 2
|------------------------------------|
|------------------------------------|
|------------------------------------|
|---3~-------------3--7-6-3----6-----|
|2--1~---------2---1--5-4-1-5--4-----|
|0-------------0------------3--------|

|------------------------------------|
|------------------------------------|
|------------------------------------|gtr 1 & 2
|------------------------------------| 
|10~------------------8~------6~-----|
|8~-------------------6~------4~-----|

|------------------------------------|
|------------------------------------|
|------------------------------------|
|------------------------------------| gui.1
|10~------------------8~------6~-----|
|8~-------------------6~------4~-----|
|
|------------------------------------|
|------------------------------------|
|------------------------------------|
|------------------------------------| gui.2
|--6-6-6/10-10~---8-6-8~--8-6-8--6-6-|
|8-----------------------------------|

|------------------------------------|
|------------------------------------|
|------------------------------------|
|---------4~----------5~-------------|gtr 1 & 2
|4---4-5------5---5-6----------------|
|2------------3----------------------|

Guitars 1 & 2
|------------------------------------|
|------------------------------------|
|------------------------------------|
|---3~-------------3--7-6-3----6-----|
|2--1~---------2---1--5-4-1-5--4-----|
|0-------------0------------3--------|


|------------------------------------|
|------------------------------------|
|------------------------------------|gtr 1 & 2
|------------------------------------| 
|10~------------------8~------6~-----|
|8~-------------------6~------4~-----|

|------------------------------------|
|------------------------------------|
|------------------------------------|
|------------------------------------| gui.1
|10~------------------8~------6~-----|
|8~-------------------6~------4~-----|
|
|------------------------------------|
|------------------------------------|
|------------------------------------|
|------------------------------------| gui.2
|--6-6-6/10-10~---8-6-8~--8-6-8--6-6-|
|8-----------------------------------|


|--------|
|--------|
|--------|
|--------|gtr 1 & 2
|---11~--|
|---9~---|
                      Acoustic gtr 1
|---------------------------------------------------------------------|
|----------9-------------------9-----------------7---------------5----|
|--------9---9---------------9---9-------------8---8-----------6---6--|
|-----11-------11---------11-------11--------9-------9-------7-------7|
|--11-------------11---11-------------11---9-----------9---7----------7
|9-------------------9-------------------7---------------5------------|
|                     Acoustic gtr 2
|---------------------------------------------------------------------|
|----------------------9----------------------------9-------------5---|
|----------------9--------9--8--9--6-------------8-----8-------6------|
|---------11--------------------------6------9--------------7---------|
|---------------------------------------------------------------------|
|9---------------------------------------7---------------5------------|

                      Acoustic gtr 1
|---------------------------------------------------------------------|
|--------9--------------9-------------7-------------5-----------------|
|--------9--------------9-------------8-------------6-----------------|
|---11--------------11-------------9-------------7--------------------|
|------------11-------------11------------9-------------7-------------|
|9---------------9--------------7-------------5-----------------------|
|                Solo Keaboard (Transcribede for guitar)
|---------------------------------------------------------------------|
|---------------------------------------------------------------------|
|---------------------------------------------------------------------|
|---------------------------------------------------------------------|
|11~-----------------------------13~-----------14~--------------------|
|9~------------------------------11~-----------12~--------------------|

                      Acoustic gtr 1
|---------------------------------------------------------------------|
|--------9--------------9-------------7-------------5-----------------|
|--------9--------------9-------------8-------------6-----------------|
|---11--------------11-------------9-------------7--------------------|
|------------11-------------11------------9-------------7-------------|
|9---------------9--------------7-------------5-----------------------|
|                Solo Keaboard (Transcribede for guitar)
|---------------------------------------------------------------------|
|---------------------------------------------------------------------|
|---------------------------------------------------------------------|
|---------------------------------------------------------------------|
|11~-----------------------------13~----------14~---------------------|
|9~------------------------------11~----------12~---------------------|
|
|---------------------------------------------------------------------|
|-------------------9~------------------------------------------------|
|----------6~----9----9-8~--6~-1-2-1----------------------------------|
|-------6------6---------------------2-1-4-1~-------------------------|
|4---4-----------------------------------------4--4-2-----------------|
|--4--------------------------------------------------5-4-5-4---------|
                                               .

                      Acoustic gtr 1
|---------------------------------------------------------------------|
|--------9--------------9-------------7-------------5-----------------|
|--------9--------------9-------------8-------------6-----------------|
|---11--------------11-------------9-------------7--------------------|
|------------11-------------11------------9-------------7-------------|
|9---------------9--------------7-------------5-----------------------|
|                Solo Keaboard (Transcribede for guitar)
|---------------------------------------------------------------------|
|---------------------------------------------------------------------|
|---------------------------------------------------------------------|
|---------------------------------------------------------------------|
|11~-----------------------------13~----------14~---------------------|
|9~------------------------------11~----------12~---------------------|
|
|---------------------------------------------------------------------|
|---------------------------------------------------------------------|
|-------------------------------6--4----------------------------------|
|----------------------------6--------6-------------------------------|
|---4----4---4---4---4---4---------------6--4~~~~---------------------|
|4-----4---4---4-------4----------------------------------------------|

                      Acoustic gtr 1
|---------------------------------------------------------------------|
|---------8---------------8---------------7---------------5-----------|
|-----9-----9---9-----9-----9---9-----7-----7---7-----5-----5---5-----|
|---9---9-----9-----9---9-----9-----7---7-----7-----5---5-----5-------|
|7----------------7---------------5---------------3-------------------|
|---------------------------------------------------------------------|
|                     Acoustic gtr 2
|---------------------------------------------------------------------|
|---------------------------------------------------------------------|
|------9--9---9---------9--9-----------9--9--9---------9--9-9---------|
|----9----9-----9-----9----9---------9----9----9-----9----9---9-------|
|7-----------------7--------------7---------------7-------------------|
|--0------------------------------------------------------------------|
|                      Electr. gtr 3
|---------------------------------------------------------------------|
|---------------------------------------------------------------------|
|---------------------------------------------------------------------|
|9~--------------------------------7~--------------5~-----------------|
|7~--------------------------------5~--------------3~-----------------|
|0~-------------------------------------------------------------------|


|------------------------------------|
|------------------------------------|
|------------------------------------|
|------------------------------------| gui.1  (Under Solo) 
|10~------------------8~------6~-----|Sorry i can't write down the solo
|8~-------------------6~------4~-----|because...

|-----------------------------------------------------------------|
|-----------------------------------------------------------------|
|-----------------------------------------------------------------|
|---5---------------------------3-5-------------------------------|
|3----6-5b6----3-5--------3-5-6-----------------------------------|
|------------4------3-4-6-----------------------------------------|
                    . . . . . . . .
|----------------------------------------------|
|----------------------------------------------|
|----------------------------------------------|
|-----8-7-8------5-4-5-------------------------|
|3-3---------3-3-------3-6-6-5-----------------|
|------------------------------4-3-1~----------|
         
|-------|
|-------|
|-------|
|---5~--|
|---3~--|
|-------|   End.


Check Out DEATH WARP, With More Transcriptions On It:

Check Out 's Web Page, With More Transcriptions On It:
               /index.html





Comments


Popular Arcturus tabs & chords
Alone Tabs
Chaos Path Tabs
Deamon Painter Intro Tabs
Fall Of Man Tabs
Nocturnal Vision Revisited Tabs
Painting My Horror Tabs
Throne Of Tragedy Tabs


Song lyrics



↑ Back to top | Tablatures and chords are parodies/interpretations of the original songs. You may use it for private study, scholarship, research or language learning purposes only
© 2014 AZChords.com Contact us | Privacy policy | DMCA | Add/correct tabs | Request tabs | Top 50 tabs