>
 >
Painting My Horror

Painting My Horror Guitar Tabs

Arcturus - Painting My Horror chords, tabs, tablatures, lyrics

Guitar lessons | Add/correct | Request | Top 50 tabs Artists:  A B C D E F G H I J K L M N O P Q R S T U V W X Y Z 0-9

Painting My Horror Guitar Tabs – Arcturus

CD, Sheet music, Poster

Do you like Painting My Horror? Share with your friends now
Tabs
                     ARCTURUS - PAINTING MY HORROR
                FROM THE ALBUM - LA MASQUERADE INFERNALE
                  Copyright 1997 Music for nations & 
                         Misanthropy Records
                            Version 1.0


Check Out DEATH WARP With More Transcriptions On It:

Check Out 's Web Page, With More Transcriptions On It:
               /index.html 


To Join The Official 's Death Tab Mailing List Contact Rich at
 

.  - palm mute                  /  - slide up to
\  - slide down to              ~  - vibrato
h  - hammer on                  b  - bend
p  - pull off                        Suffixes for bend
ph - pinch harmonic                   
*  - see comment                      
X  - percussion mute             
@  - slight palm mute           () - ghost note, sustained note
"  - 4 strokes on one note
        

Intro Bass
|------------------------------------------------------|
|------------------------------------------------------|
|---4~-----4--3~-----3/9~------9--7~-------------------|
|------------------------------------------------------|

(It Was a...)
|-------------------------------------------------------|
|------------------5------------------9-----------------|
|----------------5------------------9-------------------| Guitar1
|6~----------5~---------11~------9~---------------------|
|4~----------3~----------9~------7~---------------------|
|-------------------------------------------------------|
|                                                       |
|-------------------------------------------------------|
|-------------------------------------------------------|
|-------------------------------------------------------| Guitar2
|6~----------5~-----------------------------------------|
|4~----------3~----------4~------2~---------------------|
|------------------------2~------0~---------------------|
                                                      x3

(Where in...)
|-------------------------------------------------------------------|
|-------------------------------------------------------------------|
|-------------------------------------------------------------------|
|------------------------------------------------------8~-7h8h7\5~--|            
|-5-0-7~--5/7-8-7h8h7\5~-7~-5h7h5\4~-5\0~--5-0-8~-7/8---------------|                                
|-------------------------------------------------------------------|

|----------------|
|----------------|
|----------------|Guitar & synth.
|-7--10--8--7--5~|
|----------------|
|----------------|
               x4

(The Portal to...)
|---------------|-----------|--------------|
|------5--------|-----------|------5-------|
|----5-----6~---|------8~---|----5-----6~--|
|5-5-------4~---|7-----6~---|5-5-------4~--|
|3--------------|5----------|3-------------|
|---------------|-----------|--------------|
              x2          x2           x3


|-------------|-----------|
|-------------|-----------|
|-------8~----|-----------|
|7------6~----|-------4~--|
|5------------|3~-----2~--|
|-------------|1~---------|
            x2
                         Guitar 1
|-------------------------------------------------------------------|
|4-5-4\5-4-5-4\5-4-5-4\5-5-5-5--5-5-5~----4-5-4\5-4-5-4\5-4-5-4\5---|
|5-6-5\6-5-6-5\6-5-6-5\6-6-6-6--6-6-6~----5-6-5\6-5-6-5\6-5-6-5\6---|
|-------------------------------------------------------------------|
|-------------------------------------------------------------------|
|-------------------------------------------------------------------|
|                        Guitar 2(solo 1)                      |                |                                                                   |
|---------------------12-121212-121212------------------------------|
|--------------------------------------13---------------------------|
|-------------------------------------------------------------------|
|-------------------------------------------------------------------|
|-------------------------------------------------------------------|
|-------------------------------------------------------------------|



|-------------------------------------------------------------------|
|5--5-5-5--5-5-5~---------------------------------------------------|
|6--6-6-6--6-6-6~---------------------------------------------------|
|-------------------------------------------------------------------|
|-------------------------------------------------------------------|
|-------------------------------------------------------------------|
|                                                                   |
|12-121212-121212-----------12\13-15\16\15-13-15-13h15h12-12-13-----|
|-----------------13--13\14-----------------------------------------|
|-------------------------------------------------------------------|
|-------------------------------------------------------------------|
|-------------------------------------------------------------------|
|-------------------------------------------------------------------|

|12h13h----12----------------12-13---12h13h12h13----12--------------|
|-------14----13h14h11-13-14------13-------------13----13~--13h14h11|
|-------------------------------------------------------------------|
|-------------------------------------------------------------------|
|-------------------------------------------------------------------|
|-------------------------------------------------------------------|


|---------12h13h16~~~-----16h15h13~~--13-1313\12-12-1212------------|
|11h13h14------------------------------------------------13-13\18\13|
|-------------------------------------------------------------------|
|-------------------------------------------------------------------|
|-------------------------------------------------------------------|
|-------------------------------------------------------------------|


|12-121212-121212-----------------------------------------12-121212-|
|-----------------13~---13-1313\14-14-1414\17-17~17\18\17-----------|
|-------------------------------------------------------------------|
|-------------------------------------------------------------------|
|-------------------------------------------------------------------|
|-------------------------------------------------------------------|

|121212-----------|
|-------13--------|
|-----------------|
|-----------------|
|-----------------|
|-----------------|


|-----------------------------------------------------|
|-----------------------------------------------------|
|-------------------------------8~--7~--5~------------|
|5~-----6~-----------5--6--9----6~--5~--3~------6-----|
|3~-----4~-----------3--4--7--------------------4-----|
|-----------------------------------------------------|
                                                    x4
(A Have...)
|---------------|-----------|--------------|
|------5--------|-----------|------5-------|
|----5-----6~---|------8~---|----5-----6~--|
|5-5-------4~---|7-----6~---|5-5-------4~--|
|3--------------|5----------|3-------------|
|---------------|-----------|--------------|
            X2         X2

|----------------------------------------------------------------|
|----------------------------------------------------------------|
|----------------------------------------------------------------|
|---------------------SVERD-RULES--------------------------------|
|------------I-Cant-write-down-this-synth-theme--------sorry-:(--|
|----------------------------------------------------------------|

                       Guitar 1
|------------------------------------------------------------------|
|------------------------------------------------------------------|
|------------------------------------------------------------------|
|-------6--------6--------6--------6--------5--------5--------5----|                                    
|444444-4-444444-4-444444-4-444444-4-333333-3-333333-3-333333-3----|
|------------------------------------------------------------------|
|                     Guitar 2 (solo 2)                       |
|------------------------------------------------------------------|
|9~----------------9~--------8~------8~---------------6~-------4\--|
|--------------------------------10~-------------------------------|
|------------------------------------------------------------------|
|------------------------------------------------------------------|
|------------------------------------------------------------------|

                        
|-------------------------------------------------------------------|
|-------------------------------------------------------------------|
|-------------------------------------------------------------------|
|-------5-----------------------------------------------------------|
|333333-3--------6--------6--------6--------6--------5--------5-----|
|---------444444-4-444444-4-444444-4-444444-4-333333-3-333333-3-----|
|                                                                   |
|------------7/8-7h8h7---7/8-10/11/10-8-10-8h10h8\7-8-7h8h7---7-----|
|--------8/9-----------9------------------------------------9---9---|
|-------------------------------------------------------------------|
|-------------------------------------------------------------------|
|-------------------------------------------------------------------|
|-------------------------------------------------------------------|

|-------------------------------------------------------------------|
|-------------------------------------------------------------------|
|-------------------------------------------------------------------|
|-------------------------------------------------------------------|
|-------5--------5-------the-same-rhyth.----------------------------|
|333333-3-333333-3--------------------------------------------------|
|                                                                   |
|-------------------------------------------------------------------|
|8h9h8----8~--------------------------------------------------------|
|------10-------------------------------10^(12)---------------------|
|-------------------------------------------------------------------|
|-------------------------------------------------------------------|
|-------------------------------------------------------------------|

|-------------------------------------------------------------------|
|17h18h17\15-17h15h13-12-13h15h13\12-13h12h10-----------------------|
|---------------------------------------------13-14h16h14\13-14h13h-|
|-------------------------------------------------------------------|
|-------------------------------------------------------------------|
|-------------------------------------------------------------------|

|------------------------------------------------------------------|
|------------------------------------------------------------------|
|10-9-10h12h10\9-10h9h7-(incoplete)-:(-----------------------------|
|------------------------------------------------------------------|
|------------------------------------------------------------------|
|------------------------------------------------------------------|


(Where in...)
|-------------------------------------------------------------------|
|-------------------------------------------------------------------|
|-------------------------------------------------------------------|
|------------------------------------------------------8~-7h8h7\5~--|            
|-5-0-7~--5/7-8-7h8h7\5~-7~-5h7h5\4~-5\0~--5-0-8~-7/8---------------|                                
|-------------------------------------------------------------------|

|----------------|
|----------------|
|----------------|Guitar & synth.
|-7--10--8--7--5~|
|----------------|
|----------------|



The next riff unfortunately i don't succeed sorry :(



|-9-10-12--10-9--10-9h10h9-------------| 
|--------------------------12-10-9-----| 
|--------------------------------------| 
|--------------------------------------| 
|--------------------------------------| 
|--------------------------------------| 
                                     x2

|9"----12"-9"----10"-9"----12"-9"---10"-|12"--9"--10"--9"--12"------|
|---------------------------------------|---------------------------|
|---------------------------------------|---------------------------|
|---------------------------------------|---------------------------|
|---------------------------------------|---------------------------|
|---------------------------------------|---------------------------|
|                                                                 x2
|13"---16"-13"---15"-13"---16"-13"--15"-|16"--13"--15"-13"--16"-----|
|---------------------------------------|---------------------------|
|---------------------------------------|---------------------------|
|---------------------------------------|---------------------------|
|---------------------------------------|---------------------------|
|---------------------------------------|---------------------------|
                                                                  x2

|12""--10-9-10-12""-|
|-------------------|
|-------------------|
|-------------------|
|-------------------|
|-------------------|
|
|16""--15-13-15-16""|
|-------------------|
|-------------------|
|-------------------|
|-------------------|
|-------------------|



                      |------9~~\----|
                      |--------------|
                      |--------------|
                      |--------------|
                      |--------------|
                      |--------------|
                      |              |
                      |------13~~\---|
                      |--------------|
                      |--------------|
                      |--------------|
                      |--------------|
                      |--------------|  
                        

                      END.





Comments


Popular Arcturus tabs & chords
Alone Tabs
Chaos Path Tabs
Deamon Painter Intro Tabs
Fall Of Man Tabs
Nocturnal Vision Revisited Tabs
Throne Of Tragedy Tabs
To Thou Who Dwellest In The Night Tabs


Song lyrics



↑ Back to top | Tablatures and chords are parodies/interpretations of the original songs. You may use it for private study, scholarship, research or language learning purposes only
© 2014 AZChords.com Contact us | Privacy policy | DMCA | Add/correct tabs | Request tabs | Top 50 tabs