» » »

Arcturus, Fall Of Man Tabs (ver.1)

Artists:  A B C D E F G H I J K L M N O P Q R S T U V W X Y Z # 

Fall Of Man Tabs (ver.1)

Arcturus Tabs
Rating:
0/5 (0 votes)
Fall Of Man lessons Tabs too difficult? Try these video lessons and learn fast
                                      ARCTURUS - THE FALL OF MAN 
                        From the Album Aspera Hiems Symphonia 
 
                       Version 1.0 - MARCH 2001


For Questions, Comments, Newest Version, or Corrections contact

Check out Opeth's Domain, the ONLY place to find THIS Opeth tabs:



  - pam mute                     /  - slide up to
\  - slide down to                ~  - vibrato
h  - hammer on                    b  - bend
p  - pull off                          Suffixes for bend
ph - pinch harmonic                     f - full bend    h - half bend
*  - see comment                        r - release      t - tap bend
X  - percussion note                    ~ - vibrato bend
@  - slight palm mute             ()  - ghost note, sustained note
"  - tremolo pick until next note



Tune to E (E,A,D,G,B,E)

Intro (fade in)
                          Riff A.1 distorted + intro            

|---------------------|------------|------------|--------------------|-----------------------------------------|
|---------------------|------------|------------|--------------------|-----------------------------------------|
|-6-8--6-5--6-8--6-11-|------------|------6--2--|--6-------------5-6-|-----------------------------------------|
|-6-7--6-4--6-7--6-10-|-4---4---4--|-6-4--6--2--|--6-4--6-6-6-6--5-6-|-2-2-2-2-2-2-4-4-4-4-4-4--6-6-6-6-6-6----|
|-4-6--4-3--4-6--4-9--|-4---4---4--|-6-4--4--0--|--4-4--6-6-6-6--3-4-|-2-2-2-2-2-2-4-4-4-4-4-4--6-6-6-6-6-6----|
|---------------------|-2-4-2-1-2--|-4-2--------|----2--4-4-4-4------|-0-0-0-0-0-0-2-2-2-2-2-2--4-4-4-4-4-4----|
|---------------------|------------|------------|--------------------|-----------------------------------------|


|---------------------|------------|------------|------------------------------------------------------------|
|---------------------|------------|------------|------------------------------------------------------------|
|-6-8--6-5--6-8--6-11-|------------|-----5-9----|------------------------------------------------------------|
|-6-7--6-4--6-7--6-10-|-4---4---4--|-3-8-5-9----|------------------------------------------------------------|
|-4-6--4-3--4-6--4-9--|-4---4---4--|-3-8-3-7----|------------------------------------------------------------|
|---------------------|-2-4-2-1-2--|-1-6--------|---------4-2-0---------------5-4-2----------------7-5-4-----|
|---------------------|------------|------------|-2-2-2-2-------4-2---4-4-4-4-------5-4----5-5-5-5-------7-5-|

|----------------------------------------------------------------------------------------------------------|
|----------------------------------------------------------------------------------------------------------|
|----------------------------------------------------------------------------------------------------------|
|--------------4-6-7-6-4-6---------------------------------------------------------------------------------|
|-4-5-4-3-4-5-----------------------4-2-0---------------5-4-2----------------7-5-4-------------------------|
|---------------------------2-2-2-2-------4-2---4-4-4-4-------5-4----5-5-5-5-------7-5---------------------|

|----------------------------------------------------------------------------------------------------------|
|----------------------------------------------------------------------------------------------------------|
|---------4----------3-6-3----------6---------------9------------------------------------------------------|
|-------4---4--5-4-5---------------6--6------------9-9-12--------------------------------------------------|
|-5-4-5----------------------7-6-7--------11-10-11---------------------------------------------------------|
|----------------------------------------------------------------------------------------------------------|

|-----------|-----------------------------------------------------------------------------------------------|
|-----------|-----------------------------------------------------------------------------------------------|
|-7---4---6-|-----------------------------------------------------------------------------------------------|
|-7-4-4-4-6-|-----------------------------------------------------------------------------------------------|
|-5-4-2-4-4-|-----------------------------------------------------------------------------------------------|
|---2---2---|-----------------------------------------------------------------------------------------------|
















Coroner tab:
Divine step
shifter
serpent move
golden cashmere sleeper 1
caveat
tunnel of pain
arc-lite
nosferatu
Totentanz(intro)
outro




Check out Opeth's Domain, the only place to find Opeth tabs:
Á
            
Submit corrections

comments powered by Disqus
↑ Back to top | Arcturus Tabs for Fall Of Man. Lyrics for acoustic guitar and electric guitar. Tablatures and chords are parodies/interpretations of the original songs. You may use it for private study, scholarship, research or language learning purposes only