» » »

Mardy Bum Bass tabs (ver.7)

Artists:  A B C D E F G H I J K L M N O P Q R S T U V W X Y Z # 

Mardy Bum Bass tabs (ver.7)

Arctic Monkeys
Rating:
0/5 (0 votes)
Tabs too difficult? Try these video lessons and learn fast.
                -------------------------------------------------------------------------------
                             MARDY BUM - Arctic Monkeys
-------------------------------------------------------------------------------

Tuning: Standard

Key: D major

guitar intro (0:00)

0:08
G|---------------------------------------------------------------|
D|------------4-7-4--4--4-4-45-4-5--5--4-4-44-5------------------|x2
A|-5--5--5-5-5----------------------------------7--7--7-7-7------|
E|---------------------------------------------------------5--5--|

0:25
G|------------------------------------|
D|------------------------------------|
A|-5~~----------------------------4-7-|
E|------------------------------5-----|

0:34
G|---------------------------------------------------------------|
D|------------4-7-4--4--4-4-45-4-5--5--4-4-44-5------------------|
A|-5--5--5-5-5----------------------------------7--7--7-7-7------|
E|---------------------------------------------------------5--5--|

0:42
G|----------------------------------------|
D|----------------------------------4--2--|x2
A|-----------------5-5---------2-2-2------|
E|-3-------5-----------5---5\-------------|

1:04
G|---------------------------------------------------------------|
D|------------4-7-4--4--4-4-45-4-5--5--4-4-44-5------------------|x3
A|-5--5--5-5-5----------------------------------7--7--7-7-7------|
E|---------------------------------------------------------5--5--|

1:29
G|----------------------------------------|
D|----------------------------------4--2--|x2
A|-----------------5-5---------2-2-2------|
E|-3-------5-----------5---5\-------------|

1:51
G|-----------------------------------------------------------------|
D|-----------------------------2-------------------------------2---|
A|-------------2-0---------2-4---4-------------2-0---------2-4---4-|
E|-2-2-2-2-2-2-----3-3-3-3---------2-2-2-2-2-2-----3-3-3-3---------|

G|-----------------------------------------------------------------|
D|-----------------------------2-4---------------------------------|
A|-------------2-0---------2-4-----------------2-0-----------------|
E|-2-2-2-2-2-2-----3-3-3-3---------2-2-2-2-2-2-----3--3--35-55-5-5-|

2:08
G|-----------------------------------------------------------------|
D|-------------4-7-4-444--4-4-45-4-5-555--4-4-44-5-----------------|
A|-5-555--5-5-5------------------------------------7-777--7-7-7----|
E|-------------------------------------------------------------5-5-|

G|-----------------------------------------------------------------|
D|---------4444-7--4-444--4-4-45-4-5-555--4-4-44-5-----------------|
A|-5-555-------------------------------------------7-777--7-7-7----|
E|-------------------------------------------------------------5-5-|

2:26
G|-----------------------------------|
D|-----------------------------4--2--|
A|-----------------5-------2---------|
E|-3~------5-----------5-------------|

G|-----------------------------------|
D|-----------------------------------|
A|-----------------5-------2~--------|
E|-3~------5~----------5-------------|

G|---------------------|
D|---------------------|
A|-----------------5---|
E|-3~------5~----------|

| /  slide up
| \  slide down
| h  hammer-on
| p  pull-off
| ~  vibrato
| +  harmonic
| x  Mute note
===============================================================================
            
Tabs too difficult? Try these video lessons and learn fast.


comments powered by Disqus
↑ Back to top | Tablatures and chords are parodies/interpretations of the original songs. You may use it for private study, scholarship, research or language learning purposes only