>
 >
Web Of Lies

Web Of Lies Bass Tabs

Arch Enemy - Web Of Lies chords, tabs, tablatures, lyrics

Guitar lessons | Add/correct | Request | Top 50 tabs Artists:  A B C D E F G H I J K L M N O P Q R S T U V W X Y Z 0-9

Web Of Lies Bass Tabs – Arch Enemy

CD, Sheet music, Poster

Do you like Web Of Lies? Share with your friends now
Bass TabsTabsTabs v2Tabs v3

WEB OF LIES (Bassline)
As recorded by Arch Enemy
(From the 2001 Album WEB OF LIES)

	

Words and Music by Arch Enemy

Gtr I (E A D G) - 'Drums'
Gtr II (C F Bb Eb) - 'Bass'

 Intro
  Q=178
 4/4
  Gtr I
  S S S S S S S S S S S S S S S S   S S S S S S S S S S S S S S S S
|-x-x---------x-x-----x-x---------|-x-x---------x-x-x-x-x-x-x-x-x-x-|
|-----x-x-x-x-----x-x-----x-x-x-x-|-----x-x-x-x---------------------|
|---------------------------------|---------------------------------|
|---------------------------------|---------------------------------|


  Gtr II
  E E H.        H    E E E E   E E H.        H    E E E E
|-------------|--------------|-------------|---------------|
|-------------|--------------|-------------|---------------|
|-2-----------|--------2---2-|-1-----------|--------1---1--|
|-------------|--------------|-------------|---------------|
|
| Gtr I
| E E H.        H    E E E E   E E H.        H    E E E E
|-------------|--------------|-------------|---------------|
|-x-----------|--------x---x-|-x-----------|--------x---x--|
|-------------|--------------|-------------|---------------|
|-x-----------|--------x---x-|-x-----------|--------x---x--|


  E E H.        H    E E E E   W                     W
|-------------|--------------|---------------------|------------------------|
|-------------|--------------|---------------------|------------------------|
|-0-----------|--------0---0-|---------------------|------------------------|
|-------------|--------------|-3-------------------|-1----------------------|
|
| E E H.        H    E E E E   E S S E E E E E S S   E E E E E S S S S S S
|-------------|--------------|---x-x-x-------x-----|-x-----x-x-x-x-x-x-x-x--|
|-x-----------|--------x---x-|-----------------x-x-|---x--------------------|
|-------------|--------------|---------------------|------------------------|
|-x-----------|--------x---x-|-x-------x---x-------|-------x----------------|


   Verse
    $
    E E E E E E E E   E E E E E E E E   E E E E E E E E   E E E E E E   E E
||------------------|-----------------|-----------------|--------------------|
||o-----------------|-----------------|-----------------|--------------------|
||o-2-2-5-5-4-4-2-2-|-4-4-2-2-4-4-5-5-|-1-1-5-5-4-4-1-1-|-4-4-1-1-4-4---5-5--|
||------------------|-----------------|-----------------|--------------------|
|
|   E E E E E E E E   E E E E E E E E   E E E E E E E E   E E E E E S S E E
||------------------|-----------------|-----------------|--------------------|
||o---------x-------|---------x-------|---------x-------|---------x-------x--|
||o-----------------|-----------------|-----------------|--------------------|
||--x-x---x---x---x-|-x-x---x---x---x-|-x-x---x---x---x-|-x-x---x---x-x-x----|


                                                        1.
  E E E E E E E E   E E E E E E E E   E E E E E E E E   E E E E E E E E
|-----------------|-----------------|-----------------|-------------------||
|-----------------|-----------------|-----------------|------------------o||
|-0-0-5-5-4-4-0-0-|-4-4-0-0-4-4-5-5-|-----------------|------------------o||
|-----------------|-----------------|-3-3-3-3-3-3-3-3-|-1-1-1-1-1-1-1-1---||
|
| E E E E E E E E   E E E E E E E E   E E E E E E E E   E E E E E E E E
|-----------------|-----------------|-----------------|-------------------||
|---------x-------|---------x-------|---------x-------|-x-------x--------o||
|-----------------|-----------------|-----------------|------------------o||
|-x-x---x---x---x-|-x-x---x---x---x-|-x-x---x---x---x-|---x-x-x---x-x-x---||


                      Pre Chorus
  2.
  Q     Q   Q   Q      Q  E E E E E E   E E E E E E E E
|-------------------||----------------|------------------|
|-------------------||----------------|------------------|
|-------------------||----------------|------------------|
|-1-----1---1---1---||-5--5-5-5-5-5-5-|-5-5-5-5-5-5-5-5--|
|
| E S S E E E E E E    Q  Q   E E E E   E E Q   E E Q
|-------------------||----------------|------------------|
|-x-x-x-x-x-x-x-x-x-||----x-------x---|-----x-------x----|
|-------------------||----------------|------------------|
|-------------------||-x------x-x---x-|---x-----x-x------|


  Q  E E E E E E   E E E E E E E E   Q  E E E E E E   E E E E E E E E
|----------------|-----------------|----------------|-----------------|
|----------------|-----------------|----------------|-----------------|
|----------------|-----------------|----------------|-----------------|
|-4--4-4-4-4-4-4-|-4-4-4-4-4-4-4-4-|-3--3-3-3-3-3-3-|-3-3-3-3-3-3-3-3-|
|
| Q  Q   E E E E   E E Q   E E Q     Q  Q   E E E E   E E Q   E E Q
|----------------|-----------------|----------------|-----------------|
|----x-------x---|-----x-------x---|----x-------x---|-----x-------x---|
|----------------|-----------------|----------------|-----------------|
|-x------x-x---x-|---x-----x-x-----|-x------x-x---x-|---x-----x-x-----|


  Q  E E E E E E   +E  E +E  E +E  E +E  E   W               +W
|----------------|-------------------------|---------------|-----------------|
|----------------|-------------------------|---------------|-----------------|
|----------------|-------------------------|---------------|-----------------|
|-2--2-2-2-2-2-2-|-(2)-2-(2)-2-(2)-2-(2)-2-|-1-------------|-(1)-------------|
|
| Q  Q   E E E E    E  E  Q     E  E  Q      Q  Q  E E E E    E  E Q  E E Q
|----------------|-------------------------|---------------|-----------------|
|----x-------x---|--------x-----------x----|----x------x---|-------x------x--|
|----------------|-------------------------|---------------|-----------------|
|-x------x-x---x-|-----x--------x--x-------|-x-----x-x---x-|-----x----x-x----|


  W               +W
|---------------|------------------------|
|---------------|------------------------|
|---------------|------------------------|
|-0-------------|-(0)--------------------|
|
| Q  Q  E E E E    E  E Q  E S S S S S S
|---------------|------------------------|
|----x------x---|-------x----x-x-x-x-x-x-|
|---------------|------------------------|
|-x-----x-x---x-|-----x----x-------------|


  E E E E E E E E   E E E E E E E E
|-----------------|-----------------|
|-----------------|-----------------|
|-----------------|-----------------|
|-2-2---2-2-2---2-|-2-2---2-2-2---2-|
|
| E E E E E E E E   E E E E E E E E
|---------x-x-x---|---------x-x-x---|
|-----x-----------|-----x-----------|
|-----------------|-----------------|
|-x-x---x-------x-|-x-x---x-------x-|


  E E E   E   E E E   E     E E E   E   E E   E   E
|-------------------------|---------------------------|
|-------------------------|---------------------------|
|-------------------------|---------------------------|
|-2-2-----2---2-2-----2---|-2-2-----2---2-2-------2---|
|
| E E S S S S E E S S S S   E E S S S S E S S S S S S
|-----x-----------x-------|-----x---------------------|
|-------------x-x---------|---x---------x-x-x-x-x-x-x-|
|-------------------------|---------------------------|
|-x-x-x-x-x-x-----x-x-x-x-|-x---x-x-x-x---------------|


 Chorus
   E E E E E E E E   E E E E E E E E   E E E E E E E E   E E E E E E E E
|------------------|-----------------|-----------------|-----------------|
|------------------|-----------------|-----------------|-----------------|
|-/7-7-7-7-7-7-7-7-|-7-7-7-7-7-7-7-7-|-6-6-6-6-6-6-6-6-|-----------------|
|------------------|-----------------|-----------------|-7-7-7-7-7-7-7-7-|
|
|  E E E E E E E E   E E E E E E E E   E E E E E E E E   E E E E E E E E
|------------------|-----------------|-----------------|-----------------|
|------x-------x---|-----x-------x---|-----x-------x---|-----x-------x---|
|------------------|-----------------|-----------------|-----------------|
|--x-x---x-x-x---x-|-x-x---x-x-x---x-|-x-x---x-x-x---x-|-x-x---x-x-x---x-|


  W                W                  Q   E E E E E E   E E E E E Q.
|----------------|------------------|-----------------|----------------|
|----------------|------------------|-----------------|----------------|
|----------------|-5----------------|-----------------|----------------|
|-5--------------|------------------|-0---0-0-0-0-0-0-|-0-0-0-0-0-2----|
|
| Q  E E E E E E   Q  E E E E E S S   E E E E E E E E   E E E E E Q.
|----------------|------------------|-----------------|----------------|
|----x-------x---|----x-------x-----|---------x-------|---------x------|
|----------------|------------------|-----------------|-x---x-----x----|
|-x----x---x---x-|-x----x---x---x-x-|-x-x-x-x-x-x-x-x-|-x-x-x-x-x-x----|


    E  E  E  E  E  E  E  E    E  E  E  E  E  E  E  E
|--------------------------|-------------------------|
|--------------------------|-------------------------|
|-/10-10-10-10-10-10-10-10-|-10-10-10-10-10-10-10-10-|
|--------------------------|-------------------------|
|
|   E  E  E  E  E  E  E  E    E  E  E  E  E  E  E  E
|--------------------------|-------------------------|
|---------x-----------x----|--------x-----------x----|
|--------------------------|-------------------------|
|---x--x-----x--x--x-----x-|--x--x-----x--x--x-----x-|


    E  E  E  E  E  E  E  E    E  E  E  E  E  E  E  E
|--------------------------|-------------------------|
|--------------------------|-------------------------|
|-/10-10-10-10-10-10-10-10-|-10-10-10-10-10-10-10-10-|
|--------------------------|-------------------------|
|
|   E  E  E  E  E  E  E  E    E  E  E  E  E  E  E  E
|--------------------------|-------------------------|
|---------x-----------x----|--------x-----------x----|
|--------------------------|-------------------------|
|---x--x-----x--x--x-----x-|--x--x-----x--x--x-----x-|


  W                W
|----------------|------------------|
|----------------|------------------|
|----------------|------------------|
|-8--------------|-9----------------|
|
| Q  E E E E E E   Q  E E E E E S S
|----------------|------------------|
|----x-------x---|----x-------x-----|
|----------------|------------------|
|-x----x---x---x-|-x----x---x---x-x-|


                                               D.S.
   W                 W
|-----------------|---------------------------------|
|-----------------|---------------------------------|
|-----------------|---------------------------------|
|-10--------------|-11------------------------------|
|
|  Q  E E E E E E    E S S S S S S S S S S S S S S
|-----------------|--------x-x-x-x---------x-x-x-x--|
|-----x-------x---|----x-x---------x-x--------------|
|-----------------|--------------------x-x----------|
|--x----x---x---x-|--x------------------------------|


   Solo
    W             W               W             W
||--------------|---------------|-------------|-----------------||
||o-------------|---------------|-------------|----------------o||
||o-0-----------|-2-------------|-3-----------|-5--------------o||
||--------------|---------------|-------------|-----------------||
|
|   Q.   E H      Q.   E E Q.     Q.   E H      Q.   E E Q.
||--------------|---------------|-------------|-----------------||
||o--------x----|--------x------|--------x----|--------x-------o||
||o-------------|---------------|-------------|----------------o||
||--x----x------|-x----x---x----|-x----x------|-x----x---x------||


    Q       Q       Q       Q         Q       Q       Q       Q
||----------------------------------|---------------------------------|
||o---------------------------------|---------------------------------|
||o-0-------0-------0-------0-------|-2-------2-------2-------2-------|
||----------------------------------|---------------------------------|
|
|   S S S S S S S S S S S S S S S S   S S S S S S S S S S S S S S S S
||----------------------------------|---------------------------------|
||o-----------------x---------------|-----------------x---------------|
||o---------------------------------|---------------------------------|
||--x-x-x-x-x-x-x-x-x-x-x-x-x-x-x-x-|-x-x-x-x-x-x-x-x-x-x-x-x-x-x-x-x-|


  Q       Q       Q       Q
|------------------------------------|
|------------------------------------|
|-3-------3-------3-------3----------|
|------------------------------------|
|
| S S S S S S S S S S S S S S S S
|------------------------------------|
|-----------------x------------------|
|------------------------------------|
|-x-x-x-x-x-x-x-x-x-x-x-x-x-x-x-x----|


  1.                                 2.
  Q       Q       Q       Q           Q       Q       Q       Q
|----------------------------------||---------------------------------|
|---------------------------------o||---------------------------------|
|-5-------5-------5-------5-------o||-5-------5-------5-------5-------|
|----------------------------------||---------------------------------|
|
| S S S S S S S S S S S S S S S S     S S S S S S S S S S S S S S S S
|----------------------------------||---------------------------------|
|-----------------x---------------o||-----------------x-x-x-x---------|
|---------------------------------o||-------------------------x-x-x-x-|
|-x-x-x-x-x-x-x-x-x-x-x-x-x-x-x-x--||-x-x-x-x-x-x-x-x-----------------|


  Q   +E  E +Q    Q     +E  E +Q    Q   Q
|---------------------|---------------------|
|---------------------|---------------------|
|---------------------|---------------------|
|-1---(1)-1-(1)---1---|-(1)-1-(1)---1---1---|
|
| E E  E  E  E  E E E    E  E  E  E E E E E
|---------------------|---------------------|
|-x-------x-------x---|-----x-------x---x---|
|---------------------|---------------------|
|---x--x-----x--x---x-|--x-----x--x---x---x-|


  Q   +E  E +Q    Q     +E  E +Q    Q   Q
|---------------------|---------------------|
|---------------------|---------------------|
|---------------------|---------------------|
|-3---(3)-3-(3)---3---|-(3)-3-(3)---3---3---|
|
| E E  E  E  E  E E E    E  E  E  E E E E E
|---------------------|---------------------|
|-x-------x-------x---|-----x-------x---x---|
|---------------------|---------------------|
|---x--x-----x--x---x-|--x-----x--x---x---x-|


  Q   +E  E Q   Q     +E  E +Q    Q   Q
|-------------------|---------------------|
|-------------------|---------------------|
|-------------------|---------------------|
|-5---(5)-5-5---5---|-(5)-5-(5)---5---5---|
|
| E E  E  E E E E E    E  E  E  E E E E E
|-------------------|---------------------|
|-x-------x-----x---|-----x-------x---x---|
|-------------------|---------------------|
|---x--x----x-x---x-|--x-----x--x---x---x-|


  Q   +E  E +Q    Q     +E  E   +Q        Q       Q
|---------------------|-------------------------------------
|-7---(7)-5-(5)-------|-------------------------------------
|-----------------7---|-(7)-5---(5)-------------------------
|---------------------|-------------------8-------5---------
|
| E E  E  E  E  E E E    E  S S  S  S S S S S S S S S S S
|---------------------|-----x-x--x--x-----------------------
|-x-------x-------x---|---------------x-x-x-x-x-x-----------
|---------------------|---------------------------x-x-------
|---x--x-----x--x---x-|--x----------------------------x-x---


  Q   +E  E +Q    Q     +E  E +Q    Q   Q
|---------------------|---------------------|
|---------------------|---------------------|
|---------------------|---------------------|
|-1---(1)-1-(1)---1---|-(1)-1-(1)---1---1---|
|
| E E  E  E  E  E E E    E  E  E  E E E E E
|---------------------|---------------------|
|-x-------x-------x---|-----x-------x---x---|
|---------------------|---------------------|
|---x--x-----x--x---x-|--x-----x--x---x---x-|


  Q   +E  E +Q    Q     +E  E +Q    Q   Q
|---------------------|---------------------|
|---------------------|---------------------|
|---------------------|---------------------|
|-3---(3)-3-(3)---3---|-(3)-3-(3)---3---3---|
|
| E E  E  E  E  E E E    E  E  E  E E E E E
|---------------------|---------------------|
|-x-------x-------x---|-----x-------x---x---|
|---------------------|---------------------|
|---x--x-----x--x---x-|--x-----x--x---x---x-|


  Q   +E  E +Q    Q     +E  E +Q    E E E E
|---------------------|---------------------|
|---------------------|-------------5-7-7-7-|
|-----------------5---|-(5)-7-(7)-----------|
|-5---(5)-8-(8)-------|---------------------|
|
| E E  E  E  E  E E E    E  E  E  E E E E E
|---------------------|---------------------|
|-x-------x-------x---|-----x-------x---x---|
|---------------------|---------------------|
|---x--x-----x--x---x-|--x-----x--x---x---x-|


  Q       +E    E   +Q        Q         +E    E   +Q        Q       Q
|-------------------------------------|----------------------------------------|
|-7-------(7)---5---(5)---------------|----------------------------------------|
|-----------------------------7-------|-(7)---5---(5)--------------------------|
|-------------------------------------|---------------------8-------5----------|
|
| S S S S  S  S S S  S  S S S S S S S    S  S S S  S  S S S S S S S S S S S
|-------------------------------------|-------x-x--x--x------------------------|
|-x-------------x---------x-------x---|-----------------x-x-x-x-x-x------------|
|-------------------------------------|-----------------------------x-x--------|
|-x-x-x-x--x--x-x-x--x--x-x-x-x-x-x-x-|--x--x---------------------------x-x----|


 Chorus
  E E E E E E E E   E E E E E E E E   E E E E E E E E   E E E E E E E E
|-----------------|-----------------|-----------------|-----------------|
|-----------------|-----------------|-----------------|-----------------|
|-7-7-7-7-7-7-7-7-|-7-7-7-7-7-7-7-7-|-9-9-9-9-9-9-9-9-|-6-6-6-6---------|
|-----------------|-----------------|-----------------|---------7-7-7-7-|
|
| E E E E E E E E   E E E E E E E E   E E E E E E E E   E E E E E E E E
|-----------------|-----------------|-----------------|-----------------|
|-----x-------x---|-----x-------x---|-----x-------x---|-----x-------x---|
|-----------------|-----------------|-----------------|-----------------|
|-x-x---x-x-x---x-|-x-x---x-x-x---x-|-x-x---x-x-x---x-|-x-x---x-x-x---x-|


  W                W
|----------------|------------------|
|----------------|------------------|
|----------------|-5----------------|
|-5--------------|------------------|
|
| Q  E E E E E E   Q  E E E E E S S
|----------------|------------------|
|----x-------x---|----x-------x-----|
|----------------|------------------|
|-x----x---x---x-|-x----x---x---x-x-|


  Q   E E E E E E   E   E   E   E   E Q.
|-----------------|-------------------------|
|-----------------|-------------------------|
|-----------------|-------------------------|
|-0---0-0-0-0-0-0-|-0---0---0---0---0-2-----|
|
| E E E E E E E E   S S S S S S S S E Q.
|-----------------|-x-x-x-x-----------------|
|---------x-------|---------x-x-x-x---------|
|-----------------|-------------------x-----|
|-x-x-x-x-x-x-x-x-|-----------------x-x-----|


   E  E  E  E  E  E  E  E    E  E  E  E  E  E  E E
|-------------------------|------------------------|
|-------------------------|------------------------|
|-10-10-10-10-10-10-10-10-|-10-10-10-10-10-10-10-9-|
|-------------------------|------------------------|
|
|  E  E  E  E  E  E  E  E    E  E  E  E  E  E  E E
|-------------------------|------------------------|
|--------x-----------x----|--------x-----------x---|
|-------------------------|------------------------|
|--x--x-----x--x--x-----x-|--x--x-----x--x--x----x-|


   E E  E E +E   E  E  E    +E   E E  E  +E  E  E  E
|------------------------|---------------------------|
|-10-9----9-(9)----------|---------------------------|
|------12-------12-10-12-|-(12)-10-9-10-(10)-9-------|
|------------------------|---------------------12-10-|
|
|  E E  E E  E   E  E  E     E   E E  E   E  E  E  E
|------------------------|---------------------------|
|-------x-----------x----|---------x------------x----|
|------------------------|---------------------------|
|--x-x----x--x---x-----x-|---x---x----x---x--x-----x-|


  W                W                   W                  W
|----------------|------------------|------------------|------------------|
|----------------|------------------|------------------|------------------|
|----------------|------------------|------------------|------------------|
|-8--------------|-9----------------|-10---------------|-11---------------|
|
| Q  E E E E E E   Q  E E E E E S S    E E E E E E E E    E E E E E E E E
|----------------|------------------|------------------|------------------|
|----x-------x---|----x-------x-----|----x-----x-----x-|----x-x---x-------|
|----------------|------------------|------------------|--------x---x-x---|
|-x----x---x---x-|-x----x---x---x-x-|--x---x-x---x-x---|--x-------------x-|


 Outro
  W                 +W                  W                 +W
|-----------------|-------------------|-----------------|-------------------|
|-----------------|-------------------|-----------------|-------------------|
|-----------------|-------------------|-6---------------|-(6)---------------|
|-0---------------|-(0)---------------|-----------------|-------------------|
|
| E E E E E E E E    E  E E E E E E E   E E E E E E E E    E  E E E E E E E
|-----------------|-------------------|-----------------|-------------------|
|---------x-------|-----------x-------|---------x-------|-----------x-------|
|-----------------|-------------------|-----------------|-------------------|
|-x-x-x-x---x-x-x-|--x--x-x-x---x-x-x-|-x-x-x-x---x-x-x-|--x--x-x-x---x-x-x-|


  W                W                    Q   E E E E E E   E E E E E Q.
|----------------|--------------------|-----------------|-----------------|
|----------------|--------------------|-----------------|-----------------|
|----------------|-5------------------|-----------------|-----------------|
|-5--------------|--------------------|-0---0-0-0-0-0-0-|-0-0-0-0-0-2-----|
|
| E E E E E E Q    E E E E Q  S S S S   E E E E E E E E   E E E E E Q.
|----------------|------------x-x-x-x-|-----------------|-----------------|
|---------x------|---------x----------|---x-----x---x-x-|---x-----x-------|
|----------------|--------------------|-----------------|-----------------|
|-x-x-x-x---x----|-x-x-x-x------------|-x---x-x---x-----|-x---x-x---x-----|


   E  E  E  E  E  E  E  E    E  E  E  E  E  E  E  E
|-------------------------|-------------------------|
|-------------------------|-------------------------|
|-10-10-10-10-10-10-10-10-|-10-10-10-10-10-10-10-10-|
|-------------------------|-------------------------|
|
|  E  E  E  E  E  E  E  E    E  E  E  E  E  E  E  E
|-------------------------|-------------------------|
|--------------x----------|--------------x----------|
|-------------------------|-------------------------|
|--x--x--x--x-----x--x--x-|--x--x--x--x-----x--x--x-|


  E E E E E E E E   E E E E E E   E   E
|-----------------|------------------------|
|-----------------|------------------------|
|-7-7-7-9-9-9-5-5-|-5-7-7-7-3-3---5---5----|
|-----------------|------------------------|
|
| E E E E E E E E   E E E E E S S S S S S
|-----------------|------------------------|
|---------x-------|---------x--------------|
|-----------------|-----------x-x-x-x-x-x--|
|-x-x-x-x---x-x-x-|-x-x-x-x----------------|


  W               W                W
|---------------|---------------|----------------|
|---------------|---------------|----------------|
|---------------|---------------|----------------|
|-8-------------|-9-------------|-10-------------|
|
| Q.   E E Q.     Q.   E E Q.      Q.   E E Q.
|---------------|---------------|----------------|
|--------x------|--------x------|---------x------|
|---------------|---------------|----------------|
|-x----x---x----|-x----x---x----|--x----x---x----|


   W                      Q  +Q    H
|-----------------------|---------------*|
|-----------------------|---------------*|
|-----------------------|-7--(7)\-------*|
|-11--------------------|---------------*|
|
|     |----6----| |-3-|
|  Q  S S S S S S Q Q Q   H        H
|-----x-x---------x-----|---------------*|
|---------x-x-------x---|-x-------------*|
|-------------x-x-----x-|---------------*|
|--x--------------------|-x-------------*|



Duration Legend
---------------
W - whole; H - half; Q - quarter; E - 8th; S - 16th; T - 32nd; X - 64th; a - acciaccatura
+ - note tied to previous; . - note dotted; .. - note double dotted
Uncapitalized letters represent notes that are staccato (1/2 duration)
Irregular groupings are notated above the duration line
Duration letters will always appear directly above the note/fret number it represents the
duration for.  Duration letters with no fret number below them represent rests.  Multi-
bar rests are notated in the form Wxn, where n is the number of bars to rest for.  Low
melody durations appear below the staff

Tablature Legend
----------------
 h   - hammer-on
 p   - pull-off
 b   - bend
 pb  - pre-bend
 r   - bend release (if no number after the r, then release immediately)
 /\  - slide into or out of (from/to "nowhere")
 s   - legato slide
 S   - shift slide
 - natural harmonic
[n]  - artificial harmonic
n(n) - tapped harmonic
 ~   - vibrato
 tr  - trill
 T   - tap
 TP  - trem. picking
 PM  - palm muting
\n/  - tremolo bar dip; n = amount to dip
 \n  - tremolo bar down
 n/  - tremolo bar up
/n\  - tremolo bar inverted dip
 =   - hold bend; also acts as connecting device for hammers/pulls
 <> - volume swell (louder/softer)
 x   - on rhythm slash represents muted slash
 o   - on rhythm slash represents single note slash

Misc Legend
-----------
 |  - bar
||  - double bar
||o - repeat start
o|| - repeat end
*|  - double bar (ending)
 :  - bar (freetime)
 $  - Segno
 &  - Coda
Tempo markers -  = BPM(8/16=s8/s16), where s8 = swing 8ths, s16 = swing 16ths





Comments


Popular Arch Enemy tabs & chords
Angelclaw Tabs
Anthem Tabs
Bury Me An Angel 2 Tabs
Damnations Way 1 Tabs
Dark Insanity 1 Tabs
Dead Bury Their Dead 5 Tabs
Demonic Science Tabs
Silent Wars Tabs
Sinister Mephisto 2 Tabs
Snow Bound 5 Tabs


Song lyrics



↑ Back to top | Tablatures and chords are parodies/interpretations of the original songs. You may use it for private study, scholarship, research or language learning purposes only
© 2014 AZChords.com Contact us | Privacy policy | DMCA | Add/correct tabs | Request tabs | Top 50 tabs