>
 >
Spell Correctly

Spell Correctly Guitar Tabs

Arch Enemy - Spell Correctly chords, tabs, tablatures, lyrics

Guitar lessons | Add/correct | Request | Top 50 tabs Artists:  A B C D E F G H I J K L M N O P Q R S T U V W X Y Z 0-9

Spell Correctly Guitar Tabs – Arch Enemy

CD, Sheet music, Poster

Do you like Spell Correctly? Share with your friends now
Tabs
Snow Bound                                    


                                                                      Arch Enemy
Clean Guitar
Chuck Shuldiner will remain in our hearts forever



                                                          
C ||--------------0-----------|--------------------------|
G ||-----0-----0-----0-----0--|-----0-----0-----------0--|
D#||--------0-----------0-----|--------0--------2--0-----|
A#||--2-----------------------|--2-----------0-----------|
F ||--------------------------|--------------------------|
C ||--------------------------|--------------------------|


                                                      
--------------0-----------|--------------0-----------|
-----------0-----0--------|-----------0-----0--------|
--------0-----------0-----|--------0-----------0-----|
-----5-----------------5--|-----5-----------------5--|
--3-----------------------|--3-----------------------|
--------------------------|--------------------------|


                                                      
--------------0-----------|--------------0-----------|
--------3--------3--------|-----------0-----0--------|
-----2-----2--------2-----|--------0-----------0-----|
--0--------------------0--|-----4-----------------4--|
--------------------------|--2-----------------------|
--------------------------|--------------------------|


                                                                          
--------------0-----------|--0----------------|--------------0-----------|
-----------------0--------|--0----------------|-----0-----0-----0-----0--|
-----------0--------0-----|--0----------------|--------0-----------0-----|
--------2--------------2--|-------------------|--2-----------------------|
-----2--------------------|-------------------|--------------------------|
--0-----------------------|-------------------|--------------------------|


                                                      
--------------------------|--------------0-----------|
-----0-----0-----------0--|-----------0-----0--------|
--------0--------2--0-----|--------0-----------0-----|
--2-----------0-----------|-----5-----------------5--|
--------------------------|--3-----------------------|
--------------------------|--------------------------|


                                                      
--------------0-----------|--------------0-----------|
-----------0-----0--------|--------3--------3--------|
--------0-----------0-----|-----2-----2--------2-----|
-----5-----------------5--|--0--------------------0--|
--3-----------------------|--------------------------|
--------------------------|--------------------------|


                                                                          
--------------0-----------|--------------0-----------|--0----------------|
-----------0-----0--------|-----------------0--------|--0----------------|
--------0-----------0-----|-----------0--------0-----|--0----------------|
-----4-----------------4--|--------2--------------2--|-------------------|
--2-----------------------|-----2--------------------|-------------------|
--------------------------|--0-----------------------|-------------------|


                                                      
--------------0-----------|--------------------------|
-----0-----0-----0-----0--|-----0-----0-----------0--|
--------0-----------0-----|--------0--------2--0-----|
--2-----------------------|--2-----------0-----------|
--------------------------|--------------------------|
--------------------------|--------------------------|


                                                      
--------------0-----------|--------------0-----------|
-----------0-----0--------|-----------0-----0--------|
--------0-----------0-----|--------0-----------0-----|
-----5-----------------5--|-----5-----------------5--|
--3-----------------------|--3-----------------------|
--------------------------|--------------------------|


                                                      
--------------0-----------|--------------0-----------|
--------3--------3--------|-----------0-----0--------|
-----2-----2--------2-----|--------0-----------0-----|
--0--------------------0--|-----4-----------------4--|
--------------------------|--2-----------------------|
--------------------------|--------------------------|


                                                      
--------------0-----------|--0-----------------------|
-----------------0--------|--0-----------------------|
-----------0--------0-----|--0--------1----2----4----|
--------2--------------2--|--------------------------|
-----2--------------------|--------------------------|
--0-----------------------|--------------------------|


                                                         
--------------0-----------|-----------3--2h3h2----------|
-----------1-----1--------|--------3-----------3--------|
--------2-----------2-----|-----2-----------------2-----|
-----2-----------------2--|--0-----------------------0--|
--0-----------------------|-----------------------------|
--------------------------|-----------------------------|


                                                      
--------------3-----------|--------------0-----------|
-----------------3--------|-----------1-----1--------|
-----------0--------0-----|--------0-----------0-----|
--------0-----------------|-----2-----------------2--|
-----2-----------------2--|--3-----------------------|
--3-----------------------|--------------------------|


                                                      
--------------0-----------|--------------2-----------|
-----------1-----1--------|-----------1-----1--------|
--------2-----------2-----|--------2-----------2-----|
-----2-----------------2--|-----2-----------------2--|
--------------------------|--2-----------------------|
--2-----------------------|--------------------------|


                                                                          
--------------0-----------|--0----------------|--------------0-----------|
-----------3-----3--------|--2----------------|-----------1-----1--------|
--------0-----------0-----|--0----------------|--------2-----------2-----|
-----2-----------------2--|--2----------------|-----2-----------------2--|
--0-----------------------|--0----------------|--0-----------------------|
--------------------------|-------------------|--------------------------|


                                                         
-----------3--2h3h2----------|--------------3-----------|
--------3-----------3--------|-----------------3--------|
-----2-----------------2-----|-----------0--------0-----|
--0-----------------------0--|--------0-----------------|
-----------------------------|-----2-----------------2--|
-----------------------------|--3-----------------------|


                                                      
--------------0-----------|--------------0-----------|
-----------1-----1--------|-----------1-----1--------|
--------0-----------0-----|--------2-----------2-----|
-----2-----------------2--|-----2-----------------2--|
--3-----------------------|--------------------------|
--------------------------|--2-----------------------|


                                                            
-----------------2--------------|--------------0-----------|
----------------------0---------|-----------------0--------|
------------2--------------2----|-----------0--------0-----|
-------2------------------------|--------4--------------4--|
--2-----------------------------|-----2--------------------|
--------------------------------|--0-----------------------|


                                                       
-----------------------7--------|--24----------------||
--12----7---------7-------------|--------------------||
-------------5------------------|--------------------||
--------------------------------|--------------------||
--------------------------------|--------------------||
--------------------------------|--------------------||





Solo Guitar
Chuck Shuldiner will remain in our hearts forever



                                                                                
C ||------|------|------|------|------|------|------|----------10----8----7----|
G ||------|------|------|------|------|------|------|--------------------------|
D#||------|------|------|------|------|------|------|--------------------------|
A#||------|------|------|------|------|------|------|--------------------------|
F ||------|------|------|------|------|------|------|--------------------------|
C ||------|------|------|------|------|------|------|--------------------------|


                                                                   
-------------------|----------10----8----7----|-------------------|
--8----------------|--------------------------|--8----------------|
-------------------|--------------------------|-------------------|
-------------------|--------------------------|-------------------|
-------------------|--------------------------|-------------------|
-------------------|--------------------------|-------------------|


                                                                         
----------10----8----7----|-----------------------|---------------------|
--------------------------|--8------------x--10-8-|--7------------5--7--|
--------------------------|-----------------------|---------------------|
--------------------------|-----------------------|---------------------|
--------------------------|-----------------------|---------------------|
--------------------------|-----------------------|---------------------|


                                                                       
---------------------|------------10----8----7----|-------------------|
--8h7-5--------------|--5/---x--------------------|--8----------------|
---------------------|----------------------------|-------------------|
---------------------|----------------------------|-------------------|
---------------------|----------------------------|-------------------|
---------------------|----------------------------|-------------------|


                                                                          
----------10----8----7----|-------------------|----------10----8----7----|
--------------------------|--8----------------|--------------------------|
--------------------------|-------------------|--------------------------|
--------------------------|-------------------|--------------------------|
--------------------------|-------------------|--------------------------|
--------------------------|-------------------|--------------------------|


                                                                   
----------------------|---------------------|---------------------|
--8--------------10-8-|--7------------5--7--|--8-7-5--------------|
----------------------|---------------------|---------------------|
----------------------|---------------------|---------------------|
----------------------|---------------------|---------------------|
----------------------|---------------------|---------------------|


                                                                             
------------7----8----10----|--10b-----------17--15--|--14--------------15--|
--5/---x--------------------|------------------------|----------------------|
----------------------------|------------------------|----------------------|
----------------------------|------------------------|----------------------|
----------------------------|------------------------|----------------------|
----------------------------|------------------------|----------------------|


                                                                        
--10--------------12-10-|--12--------------3h5-|--5r---3b---x------3-5-|
------------------------|----------------------|------------x----------|
------------------------|----------------------|-----------------------|
------------------------|----------------------|-----------------------|
------------------------|----------------------|-----------------------|
------------------------|----------------------|-----------------------|


                                                      
--5r---3b-x--x-5r--2-0-2~-|--------------------------|
--------------------------|--------------------------|
--------------------------|--2~-----0-2bx-2b-0-------|
--------------------------|--------------------0-2~--|
--------------------------|--------------------------|
--------------------------|--------------------------|


                                                                          
----------10----8----7----|-------------------|----------10----8----7----|
--------------------------|--8----------------|--------------------------|
--------------------------|-------------------|--------------------------|
--------------------------|-------------------|--------------------------|
--------------------------|-------------------|--------------------------|
--------------------------|-------------------|--------------------------|


                                                                               
---------------------------|-----------10----8----7----|----------------------|
--8--------8----10--8-10h8-|--7------------------------|--8------------10--8--|
---------------------------|---------------------------|----------------------|
---------------------------|---------------------------|----------------------|
---------------------------|---------------------------|----------------------|
---------------------------|---------------------------|----------------------|


                                                                            
---------------------|--------------------|--------------------------------|
--7------------5--7--|--7r---5------------|----7h5h7h5h7h5h7h5h7h5h7h5h7h5-|
---------------------|--------------------|--------------------------------|
---------------------|--------------------|--------------------------------|
---------------------|--------------------|--------------------------------|
---------------------|--------------------|--------------------------------|


                      
--------------------||
--7h5---------------||
--------------------||
--------------------||
--------------------||
--------------------||





Comments


Popular Arch Enemy tabs & chords
Carry The Cross 1 Bass Tabs
Dead Bury Their Dead 2 Bass Tabs
Dead Bury Their Dead 3 Bass Tabs
Ravenous 2 Bass Tabs
Stigmata 2 Bass Tabs
Hydra 1 Tabs
In This Shallow Grave Tabs
Pilgrim 2 Tabs
Savage Messiah 1 Tabs
We Are A Godless Entity Tabs


Song lyrics



↑ Back to top | Tablatures and chords are parodies/interpretations of the original songs. You may use it for private study, scholarship, research or language learning purposes only
© 2014 AZChords.com Contact us | Privacy policy | DMCA | Add/correct tabs | Request tabs | Top 50 tabs