>
 >
Sinister Mephisto

Sinister Mephisto Guitar Tabs

Arch Enemy - Sinister Mephisto chords, tabs, tablatures, lyrics

Guitar lessons | Add/correct | Request | Top 50 tabs Artists:  A B C D E F G H I J K L M N O P Q R S T U V W X Y Z 0-9

Sinister Mephisto Guitar Tabs – Arch Enemy

CD, Sheet music, Poster

Do you like Sinister Mephisto? Share with your friends now
TabsTabs v2Tabs v3
ARCH ENEMY - SINISTER MEPHISTO
                        From the Album STIGMATA

                        Version 2.0 - APR 01


For Questions, Comments, Newest Version, or Corrections contact us





..  - palm mute          /  - slide up to
 \  - slide down to      ~  - vibrato
 h  - hammer on          b  - bend
 p  - pull off            Suffixes for bend
                          ph - pinch harmonic
                           f - full bend    h - half bend
*  - see comment           r - release      t - tap bend
X  - percussion mute       ~ - vibrato bend
@  - slight palm mute     () - ghost note, sustained note

Tune to B

Riff 1 (both guitars!)              1.                 
|----------------|-------------------------------|
|----------------|-------------------------------|
|-5"-2"-4"----2"-|-7"-9"-10"-7"-9"-6"-7-77777777-|
|-5"-2"-4"-6"-2"-|-7"-9"-10"-7"-9"-6"-7-77777777-|
|-3"-0"-2"-6"-0"-|-5"-7"-8"--5"-7"-4"-5-55555555-|
|----------4"----|-------------------------------|
                                        ........ 

 2.                  3.                 
|-------------------|---|
|-------------------|---|
|--------------5--4-|---|
|-3-3-5-5-2-2--5--4-|-2-|
|-3-3-5-5-2-2--3--2-|-2-|
|-1-1-3-3-0-0-------|-0-|


Riff 2 Guitar 1
|-----------------------------------------------------------------------------|
|-----------------------------------------------------------------------------|
|----9---10----9---10----------------------9---10----9---10-------------------|
|----9---10----9---10----91012h13p12h13----9---10----9---10---111214h15p14h15-|
|----7---8-----7---8-----------------------7---8-----7---8--------------------|
|-00---0----00---0----00----------------00---0----00---0----00----------------|
  ..   .    ..   .    .. ..             ..   .    ..   .    .. . .


|---------------------------------------------------------------------|
|---------------------------------------------------------------------|
|----9---10----9---10-------------------------------------------------|
|----9---10----9---10----91012h13p12h13--------------7-----------5~---|
|----7---8-----7---8--------------------------7\-------6-----5h6------|
|-00---0----00---0----00-----------------0000----000-----7p6----------|
  ..   .    ..   .    .. ..              ....    ...


Riff 3 Guitar 1
|--------------------------------------------------------------------|
|--------------------------------------------------------------------|
|------9-----7-----5-----7------9--------2-----2---------4-----4-----|
|---10-----9-----7-----9-----10---10---3-----3---3-----5-----5---5---|
|-0------0-----0-----0-----0---------5-----5-------5-7-----7-------7-|
|--------------------------------------------------------------------|
  . . .  . . . . . . . . . .  . .  . . . . . . . . . . . . . . . . . 


Refrain Guitar 1
|--------------------------------------------------------------------------|
|--------------------------------------------------------------------------|
|-----------------7-------9-9---4-4-------------------7----7-----9-9---9-9-|
|-4---------------7-------9-9---4-4---4---------------7----7-----7-7---6-6-|
|-4---------------5-55555-7-7-7-2-2-2-4---------------5-55-5-5-------0-----|
|-2-2222222222222---------------------2-2222222222222----------------------|
    .............   .....     .     .   .............   ..   .       .


Riff 4 Guitar 1
|----------------------------------------------------------|
|----------------------------------------------------------|
|----------------------------------------------------------|
|----------------------------------------------------------|
|-----10p9----7-9----------7~-----10p9---7-9---/12-10---9~-|
|-000-------0-----0-8-10-0-5~-000------0-----0--------0----|
  ...       .     .      .    ...      .     .        .

                 
Rhythm under solo 1.     2.      3.            4.     5.      6.
|----------------------|------|--------------|------|------|------------|
|----------------------|------|--------------|------|------|------------|
|-12\11-11/12----------|------|-9999999-4-5~-|-2--4-|-5--7-|-4444444444-|
|----------------------|-5--7-|-9999999-4-5~-|-2--4-|-5--7-|-4444444444-|
|-10\9--9-/10----------|-5--5-|-7777777-2-3~-|-0--2-|-3--5-|-2222222222-|
|-------------00000000-|-3--5-|--------------|------|------|------------|
              ........                                       ..........


Song structure
--------------
Riff 1: 2 times with the second part ending with 3.
Riff 2: guitar 1 begins 2 times then with guitar 2 together 2 times
Riff 3: 4 times 
Refrain: 4 times
Riff 1: same as above
Riff 2: same as above
Riff 3: same as above
Refrain: guitar 1 plays the same but guitar 2 plays 2nd refrain 2 times
Riff 4: guitar 1 alone 2 times then with guitar 2 together 2 times
Rhythm under Solo
1.: 4 times
2.: 1 time
1.: 4 times
2.: 1 time
3.: 3 times
4.: 1 time
3.: 3 times
4.: 1 time
3.: 3 times
4.: 1 time
3.: 3 times
4.: 1 time
5.: 1 time
3.: 2 times
5.: 1 time
6.: 1 time
Riff 1: same as above
Riff 3: same as above
Refrain: as 2nd refrain with other ending!





Comments


Popular Arch Enemy tabs & chords
Dead Bury Their Dead 3 Bass Tabs
Ravenous Bass Tabs
Carry The Cross 2 Tabs
Dark Of The Sun 2 Tabs
Intermezzo Liberte Tabs
Let The Killing Begin 1 Tabs
Ravenous 2 Tabs
Revolution Begins Tabs
Revolution Begins Intro Tabs
Silent Wars Tabs


Song lyrics



↑ Back to top | Tablatures and chords are parodies/interpretations of the original songs. You may use it for private study, scholarship, research or language learning purposes only
© 2014 AZChords.com Contact us | Privacy policy | DMCA | Add/correct tabs | Request tabs | Top 50 tabs