>
 >
Ravenous

Ravenous Guitar Tabs

Arch Enemy - Ravenous chords, tabs, tablatures, lyrics

Guitar lessons | Add/correct | Request | Top 50 tabs Artists:  A B C D E F G H I J K L M N O P Q R S T U V W X Y Z 0-9

Ravenous Guitar Tabs – Arch Enemy

CD, Sheet music, Poster

Do you like Ravenous? Share with your friends now
Bass TabsBass Tabs v2TabsTabs v2Tabs v3Tabs v4
.  - palm mute                  ph    - pinched harmonic
/  - slide up to                ah    - artificial harmonic
\  - slide down to              th    - tap harmonic 
~  - vibrato                    hr    - natural harmonic
h  - hammer on                  b     - bend 
p  - pull off                      Suffixes for bend    
t  - tap with finger                    f - full bend    h - half bend
"  - tremolo picking                    r - release      t - tap bend
X  - percussion mute                    p - pick when bent 
  - accented note                 Prefixes
() - ghost note, sustained note         p - pre-bend     w - use bar
*  - see comment                        d - don't pick start of bend 

Tune Gtr to C


 [Rhy.Fig.1]
||--------------------------------------------------------------------|
||--------------------------------------------------------------------|
||*-------------------------------------------------------------------|[Gtrs.1&2]
||*-10_7----10_7----10_7----10_7----10_7-10_7----10_7-10_7----10_7----|
||----p--77---p--77---p--77---p--77---p----p--77---p----p--77---p--77-|
||--------------------------------------------------------------------|
||       ..      ..      ..      ..           ..           ..      .. |
||                                                                    |
||                                                                    |
||--------------------------------------------------------------------|
||--------------------------------------------------------------------|
||--------------------------------------------------------------------|[Gtrs.1&2]
||--11_9----11_9----11_9----11_9----11_9-11_9----11_9-11_9----11_9----|
||----p--99---p--99---p--99---p--99---p----p--99---p----p--99---p--99-|
||--------------------------------------------------------------------|
         ..      ..      ..      ..           ..           ..      ..
 



|-------------------------------------------------------------------------||
|-------------------------------------------------------------------------||
|-------------------------------------------------------------------------||[Gtrs.1&2]
|-12_10------12_10------12_10------12_10------13_11-13_11------13_11------||
|---p---1010---p---1010---p---1010---p---1010---p-----p---1111---p---1111-||
|-------------------------------------------------------------------------||
|        . .        . .        . .        . .              . .        . . ||
|                                                                         ||
|                                                                         ||
|-------------------------------------------------------------------------||
|---------------------------------------------15fb~-(15)------------------||
|------------------------------------------------------------------------*||[Gtrs.1&2]
|-14_12------15_13------16_14------17_15---------------------------------*||
|---p---1212---p---1313---p---1414---p---1515-----------------------------||
|-------------------------------------------------------------------------||
         . .        . .        . .        . .


[Fill 1]
|-------|
|-------|
|-------|[Gtrs.1&2]
|-------|
|-------|
|--/X\--|
  Slides


 [Rhy.Fig.2]
||---------------------------------------------------------------|
||---------------------------------------------------------------|
||*----14\13----9/10----14\13----9/10---9/10----14\13----9/10----|[Gtrs.1&2]
||*--------------------------------------------------------------|
||-----12\11----7/8-----12\11----7/8----7/8-----12\11----7/8-----|
||--0"---sl--0"-sl---0"---sl--0"-sl--0"-sl---0"---sl--0"-sl---0"-|
    .        .       .        .      .       .        .       .




                       [2a]
|---------------------||-----------------------------------------------|
|---------------------||-----------------------------------------------|
|--7/9----5/7----4/5-*||*----14\13----9\10----14\13----9/10----9/10----|[Gtrs.1&2]
|--------------------*||*----------------------------------------------|
|--5/7----3/5----2/3--||-----12\11----7\8-----12\11----7/8-----7/8-----|
|--sl--0"-sl--0"-sl---||--0"---sl--0"-sl---0"---sl--0"-sl---0"-sl---0"-|
       .      .           .        .       .        .       .       .
 


 
|-----------------<5>"-----------||
|--------------------<5>"--------||
|-14\13----9\10-7-------<5>"----*||[Gtrs.1&2]
|--------------------------<5>"-*||
|-12\11----7\8--5----------------||
|---sl--0"-sl--------------------||
        .
                     

Repeat Rhy.Fig.2 [2x]


 [Rhy.Fig.3]
||----------------------------------------------------------||
||----------------------------------------------------------||
||*--------------------------------------------------------*||[Gtr.1]
||*------------------------4----5-7--------4---------------*||
||--2------5-4-5-----7-----2----3-5-4--5---2----------------||
||--0------3-2-3-----5--------------2--3--------------------||
||                                                          ||
||                                                          ||
||                                                          ||
||---------8-7-8-10/12~---------7-5-7--8/10___8_7___8___10~-||
||----------------sl-------------------sl---p--p--h---h-----||
||*-12\9------------------9\7---------(**)-----------------*||[Gtr.2]
||*---sl-------------------sl------------------------------*||
||----------------------------------------------------------||
||----------------------------------------------------------||
                                     

(**) = Pick note only once fret all other indicated notes 
       without striking.


Repeat Rhy.Fig.3  [1x]
Repeat Rhy.Fig.2  [1x]
Repeat Rhy.Fig.2a [1x]
Repeat Rhy.Fig.2  [2x]
Repeat Rhy.Fig.3  [2x]


 [Rhy.Fig.4]
||---------------------------------------------||
||-----------------------5---------------------||
||*------------------------5--------/9----7-7-*||[Gtrs.1&2]
||*-2---2----4---5-----------7-10---/10---9-9-*||
||--0---0-00-2-0-3-------------8---sl----------||
||---------------------------------------------||
          ..   .   --Let ring--


Repeat Rhy.Fig.4  [3x]
Repeat Rhy.Fig.2  [1x]
Repeat Rhy.Fig.2a [1x]
Repeat Rhy.Fig.2  [2x]
Repeat Rhy.Fig.3  [2x]
Repeat Rhy.Fig.4  [4x]


 [Rhy.Fig.5] (Clean: let ring throughout)
||--------5-(5)--------5-(5)-|-------5-----------0-(0)---||
||------5------------3-------|-----3---3-------6---------||
||*---7------------5---------|---5-------5---5----------*||[Gtr.1]
||*-0------------0-----------|-0-----------0------------*||
||---------------------------|---------------------------||
||---------------------------|---------------------------||


Repeat Rhy.Fig.5 [3x]


 [5a]         [2.5x]   
||-----------------|------------------||
||-----------------|------------------||
||-----------------|----------0-(0)---||[Gtr.1]
||-7-7-7-7-7-7-7-7-|-%-%-%-%--4-(4)---||
||-5-5-5-5-5-5-5-5-|-%-%-%-%--5-(5)---||
||-----------------|------------------||
|| . . . . . . . .                    ||
||                                    ||
||                                    ||
||-----------------|------------------||
||-----------------|------------------||
||--/7-(7)---2-(2)-|--4-(4)---0-(0)---||[Gtr.2]
||-----------------|----------4-(4)---||
||--/5-(5)---5-(5)-|--5-(5)---5-(5)---||
||-sl--------------|------------------||


Repeat Rhy.Fig.4 [2x]
Repeat Rhy.Fig.1 [1x]


[Fill 2]
|-----------------|
|-----------------|
|-----------------|[Gtrs.1&2]
|-----------------|
|--2--3--4--5--7--|
|--0--1--2--3--5--|


Repeat Rhy.Fig.4 [4x]


 [Ending]                    (Free time)
||---------------------------|---------------------------||
||--/13--------12-12\--------|---------------------------||
||--/14--------13-13\--------|---------------------------||[Gtrs.1&2]
||-sl---------------sl-------|-2"--------(2)---------2---||
||---------------------------|-0"--------(0)---------0---||
||---------------------------|---------------------------||





Comments


Popular Arch Enemy tabs & chords
Ravenous Bass Tabs
Cosmic Retribution Tabs
Dead Bury Their Dead 1 Tabs
Enemy Within 3 Tabs
First Deadly Sin Tabs
Marching On A Dead End Road 4 Tabs
Nemesis 1 Tabs
Nemesis 4 Tabs
Skeleton Dance Tabs
Thorns In My Flesh Tabs


Song lyrics



↑ Back to top | Tablatures and chords are parodies/interpretations of the original songs. You may use it for private study, scholarship, research or language learning purposes only
© 2014 AZChords.com Contact us | Privacy policy | DMCA | Add/correct tabs | Request tabs | Top 50 tabs