» » »

Marching On A Dead End Road Tabs (ver.1)

Artists:  A B C D E F G H I J K L M N O P Q R S T U V W X Y Z # 

Marching On A Dead End Road Tabs (ver.1)

Arch Enemy
Rating:
0/5 (0 votes)

Hard to play? Try these video lessons and learn fast.
                Arch Enemy
Marching on a Dead End Road

based on lloyd munroe's tab

 :----1---0--:        :----1-----------|
 :--3---3----:        :--3---3---------|
 :-----------:3x then    :--------2----| this once...
 :--0--------:        :--0-------------|
 :-----------:        :----------------|
 :-----------:        :----------------|
that's the rythim for now

 :-12---13-12-13----12-10h12p10-8----8-/12--|
 :--------------------------------10--------|
 :------------------------------------------|
 :------------------------------------------|
 :------------------------------------------|
 :------------------------------------------|

 :----------------------------10---10-------|
 :--------10-8-------8-6----10---10---------|
 :----10-----------9------------------------|
 :-10------------9--------------------------|
 :------------------------------------------|
 :------------------------------------------|

this part below the guitar one plays lone then in the second time
the guitar two enters along...Might have some mistakes...

guitar 1
 :-10-8-------8------------------------------------------------------|
 :------11-10---11-10-8-11-10-8----10-8------8-----------------------|
 :------------------------------10------10-9---10-9-7-10-9-7----9----|
 :-----------------------------------------------------------10------|
 :-------------------------------------------------------------------|
 :-------------------------------------------------------------------|

guitar 2
 :-13-12-10----12-10-------10------------------------------------------------|
 :----------13-------13-11----13-11-10--13-11-10-8-11-10-8----10-8-----------|
 :---------------------------------------------------------10------10-9-10---|
 :---------------------------------------------------------------------------|
 :---------------------------------------------------------------------------|
 :---------------------------------------------------------------------------|

 :-7-8-/10-10p8h10--8-10-/12--9-10-12-10-12-12-13-13--|
 :-7----------------8---------9-----------------------|
 :-7----------------8---------9-----------------------|
 :----------------------------------------------------|
 :----------------------------------------------------|
 :----------------------------------------------------|

Then the song turns to a variation of the initial pattern

the guitar holds this notes3 to 5s... you'll know
  :-10v---------------|
  :----10v-8v-6v[10]--|  in the second time instead of 6 it's 10...


 :----3-1-0-1---------------------|
 :--3---------1-3-0-1-0h1p0-------|
 :--------------------------0-2---|
 :--0-----------------------------|
 :--------------------------------|
 :--------------------------------|

 :----3-1-0-1-------0-1-0---------|
 :--3---------3---3-------3-1-----|
 :---------------------------2----|
 :--0-------------------------2---|
 :------------------------------0-|
 :--------------------------------|

 :----3-1-0-1---------------------|
 :--3---------1-3-0-1-0h1p0-------|
 :--------------------------0-2---|
 :--------------------------------|
 :--1-----------------------------|
 :--------------------------------|

 :----3-1-0-1-------0-1-0---0h1---|
 :--3---------3---3-------3-------|
 :--------------------------------|
 :--0-----------------------------|
 :--------------------------------|
 :--------------------------------|

end struming Dm

 :-5-
 :-6-
 :-7-
 :-7-
 :-5-
 :---

and that's it...

If there are any doubts...
            
Hard to play? Try these video lessons and learn fast. | Correct




comments powered by Disqus
↑ Back to top | Tablatures and chords are parodies/interpretations of the original songs. You may use it for private study, scholarship, research or language learning purposes only