>
 >
Let The Killing Begin

Let The Killing Begin Guitar Tabs

Arch Enemy - Let The Killing Begin chords, tabs, tablatures, lyrics

Guitar lessons | Add/correct | Request | Top 50 tabs Artists:  A B C D E F G H I J K L M N O P Q R S T U V W X Y Z 0-9

Let The Killing Begin Guitar Tabs – Arch Enemy

CD, Sheet music, Poster

Do you like Let The Killing Begin? Share with your friends now
TabsTabs v2Tabs v3
/---------------------------------------------------------------------------/
/    The following is the author's own interpretation of the song, to be    /
/                     used for private use and studying                     /
/---------------------------------------------------------------------------/
 
               ARCH ENEMY - LET THE KILLING BEGIN
                     From the Album STIGMATA
           Copyright 1998 W.A.R. (WRONG AGAIN RECORDS)

                    Version 666 - JANUARY 2005


For Questions, Comments, Newest Version, or Corrections contact

Check Out Death Warp, With More Transcriptions On It:

..  - palm mute          /  - slide up to
 \  - slide down to      ~  - vibrato
 h  - hammer on          b  - bend
 p  - pull off            Suffixes for bend
                          ph - pinch harmonic
                           f - full bend    h - half bend
*  - see comment           r - release      t - tap bend
X  - percussion mute       ~ - vibrato bend
@  - slight palm mute     () - ghost note, sustained note

Tune Gtr to B (2.5 Steps Down)

--LET THE KILLING BEGIN--

 |Riff A|
||-------------------------------------------------------------||
||-------------------------------------------------------------||
||:--------------------/10---9---------------------------------||
||:-3---2--------------/10---9--------------3---2--------------||
||--3---2-----/8-7-5---/8----7-----/8-7-5---3---2-----/8-7-5---||
||--1---0---0-/6-5-3-0-sl--------0-/6-5-3-0-1---0---0-/6-5-3-0-||
||          . sl     .           . sl     .         . sl     . ||
||-------------------------------------------------------------||
||-------------------------------------------------------------||
||------------------------------------------------------------:||
||--/10~----------8---7---5-----------------------------------:||
||--sl----8----------------------------------------------------||
||------------0------------------------------------------------|| 
              .


Play Riff A a total of 3 times.


 |Riff A.1|
||-------------------------------------------------------------||
||-------------------------------------------------------------||
||:--------------------/10---9---------------------------------||
||:-3---2--------------/10---9--------------3---2--------------||
||--3---2-----/8-7-5---/8----7-----/8-7-5---3---2-----/8-7-5---||
||--1---0---0-/6-5-3-0-sl--------0-/6-5-3-0-1---0---0-/6-5-3-0-||
||          . sl     .           . sl     .         . sl     . ||
||-------------------------------------------------------------||
||-------------------------------------------------------------||
||------------------------------------------------------------:||
||--/10~--------------5---------------------------------------:||
||--sl----8----------------------------------------------------||
||------------0---0--------------------------------------------|| 
              .   .


Play Riff A.1 a total of one time.


 |Fill 1|
||------------------------------------||
||------------------------------------||
||------------------------------------||
||-7---8---X-X--7---8---X-X--3--------||
||-7---8---X-X--7---8---X-X--3--------||
||-5---6---X-X--5---6---X-X--1--------||


 |Riff B|
||--------------------------------------------------|
||--------------------------------------------------|
||:-------7-----9--------9-----10-------------------|
||:-------7-----9--------9-----10--------------7/8--|
||--------5-----7--------7-----8---------------7/8--|
||--0--0-----0-----0--0-----0------0--0--0--0--5/6--|
||  .  .     .     .  .     .      .  .  .  .  sl   |
||--------------------------------------------------|
||--------------------------------------------------|
||--------7-----9--------9-----10-------------------|
||--------7-----9--------9-----10--------------8----|
||--------5-----7--------7-----8---------------8----|
||--0--0-----0-----0--0-----0------0--0--0--0--6----|
    .  .     .     .  .     .      .  .  .  .

 |--------------------------------------------------|
 |--------------------------------------------------|
 |-------7-----9--------9-----10--------------------|
 |-------7-----9--------9-----10--------------7/8---|
 |-------5-----7--------7-----8---------------7/8---|
 |-0--0-----0-----0--0-----0------0--0--0--0--5/6---|
 | .  .     .     .  .     .      .  .  .  .  sl    |
 |--------------------------------------------------|
 |--------------------------------------------------|
 |-------7-----9--------9-----10--------------------|
 |-------7-----9--------9-----10--------------8-----|
 |-------5-----7--------7-----8---------------8-----|
 |-0--0-----0-----0--0-----0------0--0--0--0--6-----|
   .  .     .     .  .     .      .  .  .  .

 |--------------------------------------------------|
 |--------------------------------------------------|
 |-------7-----9--------9-----10--------------------|
 |-------7-----9--------9-----10--------------7/8---|
 |-------5-----7--------7-----8---------------7/8---|
 |-0--0-----0-----0--0-----0------0--0--0--0--5/6---|
 | .  .     .     .  .     .      .  .  .  .  sl    |
 |--------------------------------------------------|
 |--------------------------------------------------|
 |-------7-----9--------9-----10--------------------|
 |-------7-----9--------9-----10--------------8-----|
 |-------5-----7--------7-----8---------------8-----|
 |-0--0-----0-----0--0-----0------0--0--0--0--6-----|
   .  .     .     .  .     .      .  .  .  .

 |--------------------------------------------------||
 |--------------------------------------------------||
 |-------7-----9--------9-----10--------------------||
 |-------7-----9--------9-----10--------------7/8---||
 |-------5-----7--------7-----8---------------7/8---||
 |-0--0-----0-----0--0-----0------0--0--0--0--5/6---||
 | .  .     .     .  .     .      .  .  .  .  sl    ||
 |--------------------------------------------------||
 |--------------------------------------------------||
 |-------7-----9--------9-----10-------------------:||
 |-------7-----9--------9-----10--------------8\7--:||
 |-------5-----7--------7-----8---------------8\7---||
 |-0--0-----0-----0--0-----0------0--0--0--0--6\5---||
   .  .     .     .  .     .      .  .  .  .   sl


Play Riff B a total of one time.


 |Riff C|
||--------------------------------------------------------|
||--------------------------------------------------------|
||:-------------------------------------------------------|
||:-------------------------------------------------------|
||--------------------------------------------------------|
||--2--2-2-2--2--2-2-2--2-2-2--2--2-2-2--2--2-2-2--2-2-2--|
||  .  . . .  .  . . .  . . .  .  . . .  .  . . .  . . .
||--------------------------------------------------------|
||--------------------------------------------------------|
||--------------------------------------------------------|
||--------------------------------------------------------|
||--------------------------------------------------------|
||--6--6-6-6--6--6-6-6--6-6-6--6--6-6-6--6--6-6-6--6-6-6--|
    .  . . .  .  . . .  . . .  .  . . .  .  . . .  . . .

 |--------------------------------------------------------||
 |--------------------------------------------------------||
 |--------------------------------------------------------||
 |--------------------------------------------------------||
 |--------------------------------------------------------||
 |--2--2-2-2--2--2-2-2--2-2-2--2--2-2-2--2--2-2-2--2-2-2--||
 |  .  . . .  .  . . .  . . .  .  . . .  .  . . .  . . .  ||
 |--------------------------------------------------------||
 |--------------------------------------------------------||
 |-------------------------------------------------------:||
 |-------------------------------------------------------:||
 |--------------------------------------------------------||
 |--7--7-7-7--7--7-7-7--7-7-7--7--7-7-7--7--7-7-7--7-7-7--||
    .  . . .  .  . . .  . . .  .  . . .  .  . . .  . . .


Play Riff C a total of one time.


 |Riff D|
||-----------------------------------------------------||
||-----------------------------------------------------||
||:----------------------------------------------------||
||:----------------------------------------------------||
||--8___7___5----------------------7--8~---0---0---0---||
||----p---p-----6~---5_6-8~---8/10---------------------||
||                    h       sl           .   .   .   ||
||-----------------------------------------------------||
||-----------------------------------------------------||
||-----------------------------------------------------||
||-----------------------------------------------------||
||-8___7___5----------------------8_10-8~--0---0---0---||
||---p---p-----6~---5_6-8~---8/10--h-------------------||
                     h       sl            .   .   .


Play Riff D a total of 4 times.


Repeat Riff B a total of one time.
Repeat Riff C a total of one time.
Repeat Riff D a total of 4 times.


 |Riff E|
||--------------------------------------||
||--------------------------------------||
||--------------------------------------||
||------------4a.h.~---------5-------7--||
||-------------------5_4---5-------7----||
||--0---2-3-6---------p--3-----3/5------||
||      . . .            . . . sl  . .  ||
||--------------------------------------||
||--------------------------------------||
||-------------------------------------:||
||------------4a.h.~---------5-------3-:||
||-------------------5_4---5-------3----||
||--0---2-3-6---------p--3-----3\1------||
        . . .            . . .  sl . .


Play Riff E a total of 4 times.


 |Riff F|
||------------------------------------------------||
||------------------------------------------------||
||:-----------------------------------------------||
||:-----------------------------------------------||
||-----------------------------------------5------||
||--4---4-4-4-4-4-4-4-4-4-4-4-4-4-4-4-4-4-----4---||
||      . . . . . . . . . . . . . . . .           ||
||------------------------------------------------||
||------------------------------------------------||
||-----------------------------------------------:||
||-----------------------------------------------:||
||-----------------------------------------5------||
||--0---0-0-0-0-0-0-0-0-0-0-0-0-0-0-0-0-4-----4---||
        . . . . . . . . . . . . . . . .


Play Riff F a total of 4 times.


 |Riff G|
||-------------------------------------------------------||
||-------------------------------------------------------||
||:-----------------------------------------------------:||
||:-7--9--7___9___7\5--7___5\4--5___4\2--2___4---2---0--:||
||----------h---p--sl----p--sl----p--sl----h-------------||
||-------------------------------------------------------||


Play Riff G a total of one time.


 |Riff H| (Clean Tone)
||-------------------------------------------------------||
||-------------------------------------------------------||
||:-----0-------0-----------0-------0-------------------:||
||:---0-------0-----------4-------5---------------------:||
||--2-------3-------3___5-------7------------------------||
||--------------------h----------------------------------||


Play Riff H a total of one time.


Repeat Riff G a total of one time.
Repeat Riff H a total of one time.
Repeat Riff G a total of one time.
Repeat Riff H a total of one time.
Repeat Riff G a total of one time.
Repeat Riff H a total of 6 times.
Repeat Riff B a total of one time.
Repeat Riff C a total of one time.
Repeat Riff D a total of 1/2 time.
End!

Check Out Death Warp, With More Transcriptions On It:





Comments


Popular Arch Enemy tabs & chords
Dead Eyes See No Future 3 Bass Tabs
Burning Angel 2 Tabs
Carry The Cross 2 Tabs
End Of The Line 1 Tabs
Exist To Exit Tabs
Let The Killing Begin 1 Tabs
Night Falls Fast Tabs
Rise Of The Tyrant Tabs
Savage Messiah 1 Tabs
Stigmata Tabs


Song lyrics



↑ Back to top | Tablatures and chords are parodies/interpretations of the original songs. You may use it for private study, scholarship, research or language learning purposes only
© 2014 AZChords.com Contact us | Privacy policy | DMCA | Add/correct tabs | Request tabs | Top 50 tabs