>
 >
End Of The Line

End Of The Line Guitar Tabs

Arch Enemy - End Of The Line chords, tabs, tablatures, lyrics

Guitar lessons | Add/correct | Request | Top 50 tabs Artists:  A B C D E F G H I J K L M N O P Q R S T U V W X Y Z 0-9

End Of The Line Guitar Tabs – Arch Enemy

CD, Sheet music, Poster

Do you like End Of The Line? Share with your friends now
TabsTabs v2
Tuning C (C F Bb Eb G C)

Legend:
.  = palm mute
ph = pinch harmonic
b  = bend
p  = pull off
h  = hammer on
\\  = slide
\"  = tremolo picking

Both Guitars-
Intro/Main Riff                     Fill (After playing main riff 3 times)
|-------------------------------|   |-------------------------------------|
|-------------------------------|   |-------------------------------------|
|-------------------------------|   |-------------------------------------|
|-------------------------------|   |-------------------------------------|
|8-------7-------5--------------|   |10----------------9------------------|
|--0-0-0---0-0-0---0-0-0-0-0-0-0|   |8-----------------7------------------|
   . . .   . . .   . . . . . . .

Guitar 1 -Michael Amott- (Both guitars play this twice at first)

Oh yeah, and I may not have gotten the 0\'s correct

|----------------------------------------------------|
|----------------------------------------------------|
|----------------------------------------------------|
|7p5h7----7p5-5-8-8-8-7p5h7--------------------------|
|-----0-0-------------------0-0-0-0--0-0-0-0--0-0-0-0|
|----------------------------------------------------|
      . .                   . . . .  . . . .  . . . .

Guitar 2 -Christopher Amott-
|-----------------------------------------------------------|
|-----------------------------------------------------------|
|-----------------------------------------------------------|
|10p9h10----10p9-9-12-12-12-10p9h10-------------------------|
|-------0-0------------------------0-0-0-0--0-0-0-0--0-0-0-0|
|-----------------------------------------------------------|
        . .                        . . . .  . . . .  . . . .

Both Guitars-
Verse Riff                           Fill
|-------------------------------|   |-------------------------------------|
|-------------------------------|   |-------------------------------------|
|-------------------------------|   |-------------------------------------|
|-------------------------------|   |-------------------------------------|
|8-------7-------5--------------|   |10----------------9------------------|
|--0-0-0---0-0-0---0-0-0-0-0-0-0|   |8-----------------7------------------|
   . . .   . . .   . . . . . . .
Pre-Chorus
Guitar 1 -Michael Amott-
|----------------------------------------------------|
|----------------------------------------------------|
|----------------------------------------------------|
|7p5h7----7p5-5-8-8-8-7p5h7-7-7-7-7--7-7-7-7--7-7-7-7|
|-----0-0-------------------0-0-0-0--0-0-0-0--0-0-0-0|
|----------------------------------------------------|
      . .

Guitar 2 -Christopher Amott-
|------------------------------------------------------------------------|
|------------------------------------------------------------------------|
|------------------------------------------------------------------------|
|10p9h10----10p9-9-12-12-12-10p9h10-10-10-10-10--10-10-10-10--10-10-10-10|
|-------0-0-------------------------0--0--0--0---0--0--0--0---0--0--0--0-|
|------------------------------------------------------------------------|
        . .

Chorus
Guitar 1 -Both Guitars-
|---------------------------------------------------------------------------|
|---------------------------------------------------------------------------|
|--12-12-12-12----12-12-12-12---12-12-----14-14-14-14----11-11-11-11---11-11|
|---x-x--x--x------x-x--x--x-----x--x-----x--x--x--x------x--x--x-x-----x--x|
|--10-10-10-10----10-10-10-10---10-10-----12-12-12-12-----9--9--9-9-----9--9|
|---------------------------------------------------------------------------|


|---------------------------------------------------------------------------|
|--13-13-13-13----13-13-13-13---13-13----15-15-15-15----12-12-12-12---12-12-|
|---x--x--x--x-----x--x--x--x----x--x-----x--x--x--x-----x--x--x--x----x--x-|
|--10-10-10-10----10-10-10-10---10-10----12-12-12-12-----9--9--9--9----9--9-|
|---------------------------------------------------------------------------|
|---------------------------------------------------------------------------|



End with this...
Guitar 1 -Michael Amott-
|-----------------------------------------------------|
|-----------------------------------------------------|
|-----------------------------------------------------|
|2-2-2-2--2-2-2-2--2-2-2-2--2-2-2-2--2-2-0-0-0-0------|
|-------------------------------------------------14\\|
|-------------------------------------------------14\\|

Guitar 2 -Christopher Amott-
|-----------------------------------------------------|
|-----------------------------------------------------|
|-----------------------------------------------------|
|5-5-5-5--5-5-5-5--5-5-5-5--7-7-7-7--7-7-4-4-4-4------|
|-------------------------------------------------14\\|
|-------------------------------------------------14\\|

Both Guitars-
Verse Riff                           Fill
|-------------------------------|   |-------------------------------------|
|-------------------------------|   |-------------------------------------|
|-------------------------------|   |-------------------------------------|
|-------------------------------|   |-------------------------------------|
|8-------7-------5--------------|   |10----------------9------------------|
|--0-0-0---0-0-0---0-0-0-0-0-0-0|   |8-----------------7------------------|
   . . .   . . .   . . . . . . .

Guitar 1 -Michael Amott-
|-----------------------------------------------------|
|-----------------------------------------------------|
|-----------------------------------------------------|
|2-2-2-2--2-2-2-2--2-2-2-2--2-2-2-2--2-2-0-0-0-0--0-0-|
|-----------------------------------------------------|
|-----------------------------------------------------|

Guitar 2 -Christopher Amott-
|-----------------------------------------------------|
|-----------------------------------------------------|
|-----------------------------------------------------|
|5-5-5-5--5-5-5-5--5-5-5-5--7-7-7-7--7-7-4-4-4-4--4-4-|
|-----------------------------------------------------|
|-----------------------------------------------------|

Guitar 1 -Michael Amott-
|-----------------------------------------------------|
|-----------------------------------------------------|
|-----------------------------------------------------|
|0-0-0-0--0-0-0-0--0-0-0-0--0-0-0-0--0-0--------------|
|----------------------------------------3-3-3-3--3-3-|
|-----------------------------------------------------|

Guitar 2 -Christopher Amott-
|-----------------------------------------------------|
|-----------------------------------------------------|
|-----------------------------------------------------|
|3-3-3-3--3-3-3-3--3-3-3-3--5-5-5-5--5-5-2-2-2-2--2-2-|
|-----------------------------------------------------|
|-----------------------------------------------------|

Guitar 1 -Michael Amott-
|-----------------------------------------------------|
|-----------------------------------------------------|
|-----------------------------------------------------|
|0-0-0-0--0-0-0-0--0-0-0-0--0-0-0-0--0-0--------------|
|----------------------------------------3-3-3-3--14\\|
|-------------------------------------------------14\\|

Guitar 2 -Christopher Amott-
|-----------------------------------------------------|
|-----------------------------------------------------|
|-----------------------------------------------------|
|3-3-3-3--3-3-3-3--3-3-3-3--5-5-5-5--5-5-2-2-2-2------|
|-------------------------------------------------14\\|
|-------------------------------------------------14\\|

Both Guitars-
Pre-Solo                             Fill
|-------------------------------|   |-------------------------------------|
|-------------------------------|   |-------------------------------------|
|-------------------------------|   |-------------------------------------|
|-------------------------------|   |-------------------------------------|
|8-------7-------5--------------|   |10----------------9------------------|
|--0-0-0---0-0-0---0-0-0-0-0-0-0|   |8-----------------7------------------|
   . . .   . . .   . . . . . . .

SOLO
Guitar 1 -Michael Amott-
|---------------------------------------------------------------------------|
|11-12-15-12-11-12-15-12-11-12-15--12-11-12--15-12-11--12-15-12--11-12-15-12|
|---------------------------------------------------------------------------|
|---------------------------------------------------------------------------|
|---------------------------------------------------------------------------|
|---------------------------------------------------------------------------|

Under Solo
Guitar 2 -Christoher Amott-
|-------------------------------|
|-------------------------------|
|-------------------------------|
|-------------------------------|
|8-------7-------5--------------|
|--0-0-0---0-0-0---0-0-0-0-0-0-0|
   . . .   . . .   . . . . . . .

Solo Continued...
|---------------------------------------------------------------------------|
|15-12-11-12-15-12-11-12-15-12-11--12-15-12--11-12-15--12-11-12--15-12-11-12|
|---------------------------------------------------------------------------|
|---------------------------------------------------------------------------|
|---------------------------------------------------------------------------|
|---------------------------------------------------------------------------|
Under Solo Continued...
|-------------------------------|
|-------------------------------|
|-------------------------------|
|-------------------------------|
|8-------7-------5--------------|
|--0-0-0---0-0-0---0-0-0-0-0-0-0|
   . . .   . . .   . . . . . . .

Solo Continued...
|---------------------------------------------------------------------------|
|11-12-15-12-11-12-15-12-11-12-15--12-11-12--15-12-11--12-15-12--11-12-15-12|
|---------------------------------------------------------------------------|
|---------------------------------------------------------------------------|
|---------------------------------------------------------------------------|
|---------------------------------------------------------------------------|

Under Solo Continued...
|-------------------------------|
|-------------------------------|
|-------------------------------|
|-------------------------------|
|8-------7-------5--------------|
|--0-0-0---0-0-0---0-0-0-0-0-0-0|
   . . .   . . .   . . . . . . .

Solo Continued...                             |Keep bending back and forth|
|----------15-17-19-20b----19h22p19--17----------17b------------------------|
|/15-17-19------------------------------------------------------------------|
|---------------------------------------------------------------------------|
|---------------------------------------------------------------------------|
|---------------------------------------------------------------------------|
|---------------------------------------------------------------------------|

Under Solo Continued...
|---------------------------------------------------------------------------|
|---------------------------------------------------------------------------|
|---------------------------------------------------------------------------|
|---------------------------------------------------------------------------|
|10-----------------9----------------7--------------------------------------|
|8------------------7----------------5--------------------------------------|
Out-Chorus
Guitar 1 -Michael Amott-
|-----------------------------------------------------|
|-----------------------------------------------------|
|-----------------------------------------------------|
|2-2-2-2--2-2-2-2--2-2-2-2--2-2-2-2--2-2-0-0-0-0--0-0-|
|-----------------------------------------------------|
|-----------------------------------------------------|

Guitar 1 -Michael Amott-
|-----------------------------------------------------|
|-----------------------------------------------------|
|-----------------------------------------------------|
|2-2-2-2--2-2-2-2--2-2-2-2--2-2-2-2--2-2-0-0-0-0--0-0-|
|-----------------------------------------------------|
|-----------------------------------------------------|

Guitar 2 -Christopher Amott-
|-----------------------------------------------------|
|-----------------------------------------------------|
|-----------------------------------------------------|
|5-5-5-5--5-5-5-5--5-5-5-5--7-7-7-7--7-7-4-4-4-4--4-4-|
|-----------------------------------------------------|
|-----------------------------------------------------|

Guitar 1 -Michael Amott-
|-----------------------------------------------------|
|-----------------------------------------------------|
|-----------------------------------------------------|
|0-0-0-0--0-0-0-0--0-0-0-0--0-0-0-0--0-0--------------|
|----------------------------------------3-3-3-3--3-3-|
|-----------------------------------------------------|

Guitar 2 -Christopher Amott-
|-----------------------------------------------------|
|-----------------------------------------------------|
|-----------------------------------------------------|
|3-3-3-3--3-3-3-3--3-3-3-3--5-5-5-5--5-5-2-2-2-2--2-2-|
|-----------------------------------------------------|
|-----------------------------------------------------|

Guitar 1 -Michael Amott-
|-----------------------------------------------------|
|-----------------------------------------------------|
|-----------------------------------------------------|
|0-0-0-0--0-0-0-0--0-0-0-0--0-0-0-0--0-0-0-0-0-0--0-0-|
|-----------------------------------------------------|
|-----------------------------------------------------|

Guitar 2 -Christopher Amott-
|-----------------------------------------------------|
|-----------------------------------------------------|
|-----------------------------------------------------|
|3-3-3-3--3-3-3-3--3-3-3-3--5-5-5-5--5-5-7-7-7-7--7-7-|
|-----------------------------------------------------|
|-----------------------------------------------------|

Guitar 1 -Michael Amott-
|--------------------------|
|--------------------------|
|--------------------------|
|0-0-0-0--0-0--------------|
|-------------3-3-3-3--3-3-|
|--------------------------|

Guitar 2 -Christopher Amott-
|--------------------------|
|--------------------------|
|--------------------------|
|5-5-5-5--5-5-2-2-2-2--2-2-|
|--------------------------|
|--------------------------|

Both Guitars
|------|
|------|
|------|
|------|
|2-----|
|0-----|


enjoy





Comments


Popular Arch Enemy tabs & chords
Ravenous Bass Tabs
Blood On Your Hands Tabs
Dead Inside Tabs
Despicable Heroes 1 Tabs
Fields Of Desolation 1 Tabs
Nemesis 4 Tabs
Revolution Begins Intro Tabs
Seed Of Hate 1 Tabs
Snow Bound 1 Tabs
Vultures 1 Tabs


Song lyrics



↑ Back to top | Tablatures and chords are parodies/interpretations of the original songs. You may use it for private study, scholarship, research or language learning purposes only
© 2014 AZChords.com Contact us | Privacy policy | DMCA | Add/correct tabs | Request tabs | Top 50 tabs