» » »

Arch Enemy, Dead Inside Tabs (ver.1)

Artists:  A B C D E F G H I J K L M N O P Q R S T U V W X Y Z # 

Dead Inside Tabs (ver.1)

Arch Enemy Tabs
 Rating:
4/5 (4 votes)
Dead Inside lessons Tabs too difficult? Try these video lessons and learn fast
1
                ARCH ENEMY - DEAD INSIDE
                         From the Album BURNING BRIDGES
                         Copyright 1999 Savage Messiah Music
                                       
                        Version 1.0 - March 2001


DO NOT POST THIS TABLATURE ON YOUR SITE WITHOUT MY PERMISSION
THIS TABLATURE IS THE PROPERTY OF DSRMUSIC AND CHAOS THEORY MAGAZINE

For Questions, Comments, Corrections, or Newest Version;
               or Richard at 

Check Out 's Web Page, With More Transcriptions On It:
               /index.html

.  - palm mute           * - see comment
~  - vibrato             x - percussion note
/  - slide up to         \ - slide down to
h  - hammer on           p - pull off
bf - bend full           bfr - bend full and release
bh - bend half           bhr - bend half and release
"  - tremolo note        ph - pinch harmonic
t  - tap                 sh - semi harmonic
har - natural harmonic

TUNING: B(all strings down 2.5 steps)
 
  Riff A
|-------------------------------------------------------------------|
|-------------------------------------------------------------------| GTR I
|-10-10-10-10----9---7---5--------10-10-10-10----9---7---5----5/7-5-|  &
|-12-12-12-12---10---9---7--------12-12-12-12---10---9---7----7/9-7-| GTR II
|-------------0----0---0---000000-------------0----0---0---00-------|
|-------------------------------------------------------------------|
              .    .   .   ......             .    .   .   ..


                             end of Riff A ---|
|--------------------------------------------------0----------------|
|--------------------------------------------------0----------------|
|-10-10-10-10----9---7---5------------------------------------------| GTR I
|-12-12-12-12---10---9---7--------7-7-7-7---7-----------------------|
|-------------0----0---0---000000-8-8-8-8---8-----------------------|
|-----------------------------------------------0-------------------|
|             .    .   .   ......                                   |   
|                                                                   |
|                            end of Riff A ---|                     |
|-------------------------------------------------------0-----------|
|-------------------------------------------------------0-----------|
|-10-10-10-10----9---7---5------------------------------------------| GTR II
|-12-12-12-12---10---9---7--------7-7-7-7---7-----------------------|
|-------------0----0---0---000000-8-8-8-8---8-----------------------|
|-----------------------------------------------0-------------------|
              .    .   .   ......

First guitar solo, play with Riff A

|--15bfr---15bf~----20bf---20--19~--------20--19bh-19-17------------|
|------------------------------------15/17--17----------20--20------|
|---------------------------------------------------------19--17~---|
|-------------------------------------------------------------------|
|-------------------------------------------------------------------|
|-------------------------------------------------------------------|

  Riff B
|---------------------------------------------------------------------------|
|---------------------------------------------------------------------------|
|-----------------2----------------2---------------2---------------4--------|
|-6---------------2-2222222222222223-333333333333334-444444444444445-555555-|
|-7---------------0-0000000000000000-000000000000000-000000000000000-000000-|
|---------------------------------------------------------------------------|
|                   ...............  ..............  ..............  ...... |
|guitar II                                                                  |
|------------0---------------0---------------0---------------0--------------|
|--------------0-----------0---0-----------0---0-----------0---0------------|
|----------------5-------5-------5-------5-------5-------5-------5-4~-------|
|-6--6--7-9--------7~--7-----------7~--7-----------7~--7--------------------|
|---------------------------------------------------------------------------|
|---------------------------------------------------------------------------|
     .  . .            . . .           . . .           . . .

|----------------|
|----------------|
|-4--------------| GTR I
|-6--6-6-6-6-6-6-|
|-0--0-0-0-0-0-0-|
|----------------|
|    . . . . . . |
|                |
|---------0------|
|-----------0----|
|-------------5--| GTR II
|-6~-6-7-9-------|
|----------------|
|----------------|
|    . . .       |
|                |
|----------------|
|-------------5--|
|----------------| GTR III
|----------------|
|----------------|
|----------------|

                                                                end of Riff B
|-------------------------------------------------------------------------|
|-------------------------------------------------------------------------|
|-2----------------2---------------2---------------4--------4-------------|
|-2-2222222222222223-333333333333334-444444444444445-555555-6-6-6-6-666666|
|-0-0000000000000000-000000000000005-000000000000000-000000-0-0-0-0-000000|
|-------------------------------------------------------------------------|
|   ...............  ..............  ..............  ......   . . . ......|
|                                                                         |
|-----------0---------------0---------------0-----------------------0-----|
|---------0---0-----------0---0-----------0---0-----------------------0---| 
|-------5-------5-------5-------5-------5-------5-4~--------------------5-|
|-7~--7-----------7~--7-----------7~--7--------------------6~-6-7-9-------|
|-------------------------------------------------------------------------|
|-------------------------------------------------------------------------|
|     . . .           . . .           . . .                   . . .       |
|                                                                         |
|-------------------------------------------------------------------------|
|-------5-3---3-5-------5-3---3-5-------5-3---3-5-3~--------------------5-|
|-5~--5-----5-----5~--5-----5-----5~--5-----5--------------4~-4-5-7-5-7---|
|-------------------------------------------------------------------------|
|-------------------------------------------------------------------------|
|-------------------------------------------------------------------------|
      . . .           . . .           . . .                 . . . 


|---------------------------------------------------|
|---------------------------------------------------|
|--------------------------------------------/12----| GTR I
|--------10------------9------10-/14-------9-----10-|
|-0-10/12---12--0-9/10---10-8--------12-\7----------|
|---------------------------------------------------|
| .             .                                   |
|                                                   |
|---------------------------------------------------|
|---------------------------------------------------|
|-2-------------------------------------------------| GTR II
|-2-------------------------------------------------|
|-0-------------------------------------------------|
|---------------------------------------------------|


Riff C
|---------------------------------------------------|
|---------------------------------------------------|
|---------------------------------------------------| GTR I
|--------10------------9------10-/14-------9-10-9---|
|-0-10/12---12--0-9/10---10-8--------12-\7----------|
|---------------------------------------------------|
| .             .                                   |
|                                                   |
|---------------------------------------------------|
|---------------------------------------------------|
|--------9------------7-------9-/12--------7-/9-7---| GTR II
|---9/10---10-----7/9----9--7-------10--6-----------|
|-0-------------0-----------------------------------|
|---------------------------------------------------|
  .             .

                  
 Riff D
|---------------------------------------------------|
|---------------------------------------------------|
|--------------------------------------------/12----| GTR I
|--------10------------9------10-/14-------9-----10-|
|-0-10/12---12--0-9/10---10-8--------12-\7----------|
|---------------------------------------------------|
| .             .                                   |
|                                                   |
|---------------------------------------------------|
|---------------------------------------------------|
|--------9------------7-------9-/12-------12-/16-12-| GTR II
|---9/10---10-----7/9----9--7-------10--9-----------|
|-0-------------0-----------------------------------|
|---------------------------------------------------|
  .             .

PLay Riff C
PLay Riff D
PLay Riff C
Play Riff A
PLay Riff B(except no GTR III, and GTR II ends like this...

|-0-------|
|---0-----|
|-----5---|
|-------7-|
|---------|
|---------|

PLay Riff D
PLay Riff C
PLay Riff D
PLay Riff C
Play Riff A
Play Riff B(except no GTR III)

|-----------8--8------------7-7-----------8--8-----------------------| 
|-----------10-10-----------9-9-----------10-10-----------10-9-------| 
|-----------10-10-----------9-9-----------10-10----------------9-----| 
|-----------10-10-----------9-9-----------10-10------------7-6---9~--| 
|-3-3--3--3-------2-2--2--2-----3-3--3--3--------2-2--2--------7-----| 
|-1-1--1--1-------0-0--0--0-----1-1--1--1--------0-0--0----------7~--| 
| . .  .  .       . .  .  .     . .  .  .        . .  .              |
|                                                                    |
|-----------8--8------------7-7-----------8--8-----------------------| 
|-----------10-10-----------9-9-----------10-10-----------13-12------| 
|-----------10-10-----------9-9-----------10-10----------------13----| 
|-----------10-10-----------9-9-----------10-10------------------12~-| 
|-3-3--3--3-------2-2--2--2-----3-3--3--3--------2-2--2--------------| 
|-1-1--1--1-------0-0--0--0-----1-1--1--1--------0-0--0--------------| 
  . .  .  .       . .  .  .     . .  .  .        . .  .  

|-----------8--8------------7-7-----------8--8-------------7-7-------| 
|-----------10-10-----------9-9-----------10-10------------9-9-------| GTR
|-----------10-10-----------9-9-----------10-10------------9-9-------|  I
|-----------10-10-----------9-9-----------10-10------------9-9-------|  &
|-3-3--3--3-------2-2--2--2-----3-3--3--3--------2-2--2-2------------| II
|-1-1--1--1-------0-0--0--0-----1-1--1--1--------0-0--0-0------------| 
  . .  .  .       . .  .  .     . .  .  .        . .  . .             


|----8--8--8--8-----7-7-7-7-7-|
|----10-10-10-10----9-9-9-9-9-|
|----10-10-10-10----9-9-9-9-9-| GTR 1 and 2
|----10-10-10-10----9-9-9-9-9-|
|-----------------------------|
|-1"-------------0"-----------|
  .              .

repeat until riff changes

|---------------------------------------|
|---------------------------------------| Gtr I and II
|---------------------------------------|
|----------------------2"0"-------------|
|-------------------3"------------------|
|-3"-5"-1"-3"-3"-5"---------------------|
  .  .  .  .  .  .  .  . .

|---------------------------------------|
|---------------------------------------|
|---------------------------------------|
|----------------------2"-0-------------|
|-------------------3"------------------|
|-3"-5"-1"-3"-3"-5"---------------------|
| .  .  .  .  .  .  .  .                |
|                                       |
|---------------------------------------|
|---------------------------------------|
|-------------------------2-2-2---------|
|----------------------2"-0-0-0---------|
|-------------------3"------------------|
|-3"-5"-1"-3"-3"-5"---------------------|
  .  .  .  .  .  .  .  .

 this repeats over until end of song while other guitar plays
 whats after *
|--------0-0-0-------0-0-0-------0-0-0---------------------------||---|
|--------0-0-0-------0-0-0-------0-0-0----------10----------12---||---|
|-----4--4-4-4-----7-7-7-7-----9-9-9-9-------12----------14------||-4-|
|---4----4-4-4---7---7-7-7---9---9-9-9----12----------14---------||-4-|
|-2------2-2-2-5-----5-5-5-7-----7-7-7-10----------12------------||-2-|
|----------------------------------------------------------------||---|

*
|----------------------------------------------------------------|---|
|-------------------------------*--------------------------------|---|
|-4--4/7--7/9--9/12--12/14--14/16--7--7/9-9/12-12/14-w/wha-------|---|
|----------------------------------------------------9"-7"-9"-7"-|-9-|
|-2--2/5--5/7--7/10--10/12--12/14--5--5/7-7/10-10/12-------------|---|
|----------------------------------------------------------------|---|
*hit 6 times


SOLOS

2:49

|-------------12-13-12----13-12-------12-----------------------------
|-15bfr-15bf~----------15-------15-13----15-13-12-15-13-12-----------
|----------------------------------------------------------14~-13~---
|--------------------------------------------------------------------
|--------------------------------------------------------------------
|--------------------------------------------------------------------

               2:54

--------------|-------20----19-17-19bh~r-19-17-|
--------------|-17h18----18--------------------|
--------------|--------------------------------|
--14h15~-14~--|--------------------------------|
--------------|--------------------------------|
--------------|--------------------------------|
   

2:56

|-20-20-20-20-17-17-17-17-19-19-19-19-16-16-16-16-17-17-17-17-
|-------------------------------------------------------------
|-------------------------------------------------------------
|-------------------------------------------------------------
|-------------------------------------------------------------
|-------------------------------------------------------------
|
|-24-24-24-24-20-20-20-20-22-22-22-22-19-19-19-19-20-20-20-20-
|-------------------------------------------------------------
|-------------------------------------------------------------
|-------------------------------------------------------------
|-------------------------------------------------------------
|-------------------------------------------------------------

I dont feel 100 percent sure on this ending, but its probably right. 

--13-16p13h16p13------------|
--------------------15bf~---|
----------------------------|
----------------------------|
----------------------------|
----------------------------|
                            |
--16-19p16h19p16------------|
--------------------18bfh~--|
----------------------------|
----------------------------|
----------------------------|
----------------------------|


3:00

|-16h17p16------------------------------------------------------|
|----------18-17-15-------------------------------------15bf~---|
|-------------------17-16-14------------------------------------|
|----------------------------18-15-14---------------------------|
|-------------------------------------17-15-14------------------|
|----------------------------------------------17---16~---------|

3:04

|-12h16-12----16-----------------------------------------------
|----------15----15-17-15-------------15----------15-12h15p12--
|-------------------------16-14p13h14----16-14-13--------------
|--------------------------------------------------------------
|--------------------------------------------------------------
|--------------------------------------------------------------

----------------------------------------------------------|
----------------------------------------------------------|
-14-13-------14-13----------------------------------------|
-------15-14-------15-14-12-------------------/15~--14~---|
----------------------------15-14---12---11~--------------|
----------------------------------------------------------|

3:09

|-------17-20-17----------17-19-17-------22bf~-(bfh)(rbh)(bfh)(rbh)(bfh)\-|
|-17-18----------18-17-18----------18-17----------------------------------|
|-------------------------------------------------------------------------|
|-------------------------------------------------------------------------|
|-------------------------------------------------------------------------|
|-------------------------------------------------------------------------|

3:11

|-10-7----|-12-9-----|-8-5----|-10-7---|-7-|-10-7---|-12-9----|-12-9------|
|------8--|------10--|-----6--|------8-|---|------8-|------10-|-----------|
|---------|----------|--------|--------|---|--------|---------|-----------|
|play-5---|-play-5---|-play-5-|-play-5-|---|-play-5-|-play-4--|-----------|
|-times---|--times---|--times-|--times-|---|--times-|---times-|-----------|
|---------|----------|--------|--------|---|--------|---------|-----------|
|                                                                         |
|-19-15---|-21-17----|-17-13--|-19-15--|-15|-19-15--|-21-17---|-21-17-----|
|-------15|-------17-|------13|------15|---|------15|------17-|-----------|
|---------|----------|--------|--------|---|--------|---------|-----------|
|play-5---|-play-5---|-play-5-|-play-5-|---|-play-5-|-play-4--|-----------|
|-times---|--times---|--times-|--times-|---|--times-|---times-|-----------|
|---------|----------|--------|--------|---|--------|---------|-----------|

3:21

|----------------12-15p12----12-15p12----12-15p12----12--
|-8-/13-12-13-15----------13----------13----------13-----
|--------------------------------------------------------
|--------------------------------------------------------
|--------------------------------------------------------
|--------------------------------------------------------

                                  
-15p12-13p12-----------------14-15-19-15-15-19-15-15-17-17bf~-|
-------------15--8/13p12h13-----------------------------------|
--------------------------------------------------------------|
--------------------------------------------------------------|
--------------------------------------------------------------|
--------------------------------------------------------------|

3:25                                      3:29

 w/wha
|---------------------------------------|-----------------------------------|
|-15-12-----12-15-15bf~-14--------------|-13-10-----10-13-13bf~-12----------|
|-------12~----------------14-v13-14~---|-------10~---------------12-v11-12~|
|---------------------------------------|-----------------------------------|
|---------------------------------------|-----------------------------------|
|---------------------------------------|-----------------------------------|
v=dive with whammy to this note

3:32
                               *(see note)                      delay repeat
|------------------15bf~-15p12-15bf~--15-17-19~-17"19"20"22bf~-22-21-22~~-|
|-15-12-----12-15---------------------------------------------------------|
|-------12~---------------------------------------------------------------|
|-------------------------------------------------------------------------|
|-------------------------------------------------------------------------|
|-------------------------------------------------------------------------|
*for this bend, it gets vibratoed up a full step, back down to 15, back up,
and so forth. 


Check Out 's Web Page, With More Transcriptions On It:
               /index.html
            
Submit corrections

comments powered by Disqus
↑ Back to top | Arch Enemy Tabs for Dead Inside. Lyrics for acoustic guitar and electric guitar. 1 Tablatures and chords are parodies/interpretations of the original songs. You may use it for private study, scholarship, research or language learning purposes only