» » »

Dead Eyes See No Future Bass tabs (ver.1)

Artists:  A B C D E F G H I J K L M N O P Q R S T U V W X Y Z # 

Dead Eyes See No Future Bass tabs (ver.1)

Arch Enemy
Rating:
0/5 (0 votes)
Tabs too difficult? Try these video lessons and learn fast.
                intro
F|-------------|
C|--2-3-2-1-3--|
G|--2-3-2-1-3--|
C|-------------|

F|---------------------------------|
C|---------------------------------|
G|--------2--------3--------2-1-3--|
C|-0-5-4-3--0-5-4-3--0-5-4-3-------|
main rifft    4xs           4xs      
F|--------------|-----|--------------|-------|--------------|-------|
C|---------tr---|-----|--------------|-------|---------tr---|-------|
G|--7h8---7(8)--|-7~--|---7h8---7(8)-|--16/1-|--7h8---7(8)--|-7-5-3-|
C|00----00------|-----|00-----00-----|-------|00----00------|-------|

F|---------------------------------|
C|---------------------------------|
G|--------2--------3--------2-1-3--|
C|-0-5-4-3--0-5-4-3--0-5-4-3-------|
      4 or 6xs               2xs                     2xs
F|--------------|-------|--------------|-------|--------------|-------|
C|---------tr---|-------|--------------|-------|---------tr---|-------|
G|--7h8---7(8)--|-7/16--|---7h8---7(8)-|--16/1-|--7h8---7(8)--|-7-5-3-|
C|00----00------|-------|00-----00-----|-------|00----00------|-------|
chorus repet 2xs
F|--------------------------|--------------------------|
C|--------------------------|--------------------------|
G|--5--5--5--5--5--5--5--3--|--5--5--5--5--5--5--5--5--|
C|--------------------------|--------------------------|

F|--------------------------|--------------------------|
C|--------------------------|--------------------------|
G|--5--5--5--5--5--5--3--3--|--1--1--1--1--1--1--1--1--|
C|--------------------------|--------------------------|

F|--------------------------|
C|--------------------------|
G|--1--1--1--1--1--1--1--1--|
C|--------------------------|
     6xs                  2xs                    2xs 
F|--------------|-----|--------------|-------|--------------|-------|
C|---------tr---|-----|--------------|-------|---------tr---|-------|
G|--7h8---7(8)--|-7~--|---7h8---7(8)-|--16/1-|--7h8---7(8)--|-7-5-3-|
C|00----00------|-----|00-----00-----|-------|00----00------|-------|

chorus repet 2xs
F|--------------------------|--------------------------|
C|--------------------------|--------------------------|
G|--5--5--5--5--5--5--5--3--|--5--5--5--5--5--5--5--5--|
C|--------------------------|--------------------------|

F|--------------------------|--------------------------|
C|--------------------------|--------------------------|
G|--5--5--5--5--5--5--3--3--|--1--1--1--1--1--1--1--1--|
C|--------------------------|--------------------------|

F|--------------------------|
C|--------------------------|
G|--1--1--1--1--1--1--1--1--|
C|--------------------------|

F|----|----|----|----|----|----|----|
C|----|----|----|----|----|----|----|
G|----|--2-|--4-|----|----|--2-|----|
C|--3-|----|----|--3-|--5-|----|--5-|

F|------------------------|--------------------------|
C|------7--------7-----7--|--------9--------9-----9--|
G|---5--------5-----------|-----7--------7-----------|
C|3--------3--------3-----|--5--------5--------5-----|
                                                             
F|---------------------------|-------------------------------|
C|------11--------11-----11--|---------14---------14-----14/-|
G|---9---------9-------------|-----11---------11-------------|
C|7---------7---------7------|--9----------9----------9------|

F|------------------------|--------------------------|-------------------|
C|-----7--------7-----7---|-------9--------9-----9---|-------------------|
G|---5--------5-----------|-----7--------7-----------|--2----------------|
C|3--------3--------3-----|--5--------5--------5-----|-------------------|

bass stays quite for the soft like drumatic part

reapet chorus till the solos over 
F|--------------------------|--------------------------|
C|--------------------------|--------------------------|
G|--5--5--5--5--5--5--5--3--|--5--5--5--5--5--5--5--5--|
C|--------------------------|--------------------------|

F|--------------------------|--------------------------|
C|--------------------------|--------------------------|
G|--5--5--5--5--5--5--3--3--|--1--1--1--1--1--1--1--1--|
C|--------------------------|--------------------------|

F|--------------------------|
C|--------------------------|
G|--1--1--1--1--1--1--1--1--|
C|--------------------------|

F|--------|
C|--------|
G|-2-2-2-0|
C|--------|
            
Tabs too difficult? Try these video lessons and learn fast.


comments powered by Disqus
↑ Back to top | Tablatures and chords are parodies/interpretations of the original songs. You may use it for private study, scholarship, research or language learning purposes only