>
 >
Dead Eyes See No Future

Dead Eyes See No Future Guitar Tabs

Arch Enemy - Dead Eyes See No Future chords, tabs, tablatures, lyrics

Guitar lessons | Add/correct | Request | Top 50 tabs Artists:  A B C D E F G H I J K L M N O P Q R S T U V W X Y Z 0-9

Dead Eyes See No Future Guitar Tabs – Arch Enemy

CD, Sheet music, Poster

Do you like Dead Eyes See No Future? Share with your friends now
Bass TabsBass Tabs v2Bass Tabs v3TabsTabs v2
Legend:

h - Hammer on
p - Pull Off

This Song is really hard, and took me too long to tab, I sepertated the guitars,
because... well its a two guitar song, don't 


Lead Guitar - Michael Ammot
Tuning - C G C F A D 


||------------------------------|------------------------------|
||------------------------------|------------------------------|
||------------------------------|------------------------------|
||-------------2-------------3--|-------------2------1------3--|
||-------------2-------------3--|-------------2------1------3--|
||--0--0-0-3-2----0--0-0-3-2----|--0--0-0-3-2----0-0----0-0----|


                                                              
|------------------------------|------------------------------|
|------------------------------|------------------------------|
|------------------------------|------------------------------|
|-------------2-------------3--|-------------2------1------3--|
|-------------2-------------3--|-------------2------1------3--|
|--0--0-0-3-2----0--0-0-3-2----|--0--0-0-3-2----0-0----0-0----|


                                                              
|------------------------------|------------------------------|
|------------------------------|------------------------------|
|------------------------------|------------------------------|
|-------------2-------------3--|-------------2------1------3--|
|-------------2-------------3--|-------------2------1------3--|
|--0--0-0-3-2----0--0-0-3-2----|--0--0-0-3-2----0-0----0-0----|


                                                              
|------------------------------|------------------------------|
|------------------------------|------------------------------|
|------------------------------|------------------------------|
|-------------2-------------3--|-------------2------1------3--|
|-------------2-------------3--|-------------2------1------3--|
|--0--0-0-3-2----0--0-0-3-2----|--0--0-0-3-2----0-0----0-0----|


                                                              
|------------------------------|------------------------------|
|------------------------------|------------------------------|
|------------------------------|------------------------------|
|-------------2-------------3--|-------------2------1------3--|
|-------------2-------------3--|-------------2------1------3--|
|--0--0-0-3-2----0--0-0-3-2----|--0--0-0-3-2----0-0----0-0----|


                                                              
|------------------------------|------------------------------|
|------------------------------|------------------------------|
|------------------------------|------------------------------|
|-------------2-------------3--|-------------2------1------3--|
|-------------2-------------3--|-------------2------1------3--|
|--0--0-0-3-2----0--0-0-3-2----|--0--0-0-3-2----0-0----0-0----|


                                                                    
|---------------------------------|---------------------------------|
|---------------------------------|---------------------------------|
|---------------------------------|---------------------------------|
|---------------------------------|---------------------------------|
|---------8h7h8-7---------8h7h8h7-|---------8h7h8-7---------8h7h8h7-|
|--0--0-0---------0--0--0---------|--0--0-0---------0--0--0---------|


                                                                    
|---------------------------------|---------------------------------|
|---------------------------------|---------------------------------|
|---------------------------------|---------------------------------|
|---------------------------------|---------------------------------|
|---------8h7h8-7---------8h7h8h7-|---------8h7h8-7---------8h7h8h7-|
|--0--0-0---------0--0--0---------|--0--0-0---------0--0--0---------|


                                                                            
|-------------------|---------------------|---------------------------------|
|-------------------|---------------------|---------------------------------|
|-------------------|---------------------|---------------------------------|
|--7----------------|---------------------|---------------------------------|
|--5----------------|------------7/-14/---|---------8h7h8-7---------8h7h8h7-|
|-------------------|------------5/-12/---|--0--0-0---------0--0--0---------|


                                                      
|---------------------------------|-------------------|
|---------------------------------|-------------------|
|---------------------------------|-------------------|
|---------------------------------|--7----------------|
|---------8h7h8-7---------8h7h8h7-|--5----------------|
|--0--0-0---------0--0--0---------|-------------------|


                                                  
|-------------------------------------------------|
|-------------------------------------------------|
|-------------------------------------------------|
|----------16/15/14/13/12/11/10/9/8/7/6/5/4/3/2/1-|
|----------16/15/14/13/12/11/10/9/8/7/6/5/4/3/2/1-|
|----------16/15/14/13/12/11/10/9/8/7/6/5/4/3/2/1-|


                                                                    
|---------------------------------|---------------------------------|
|---------------------------------|---------------------------------|
|---------------------------------|---------------------------------|
|---------------------------------|---------------------------------|
|---------8h7h8-7---------8h7h8h7-|---------8h7h8-7---------8h7h8h7-|
|--0--0-0---------0--0--0---------|--0--0-0---------0--0--0---------|


                                                                        
|-------------------|--------------------|------------------------------|
|-------------------|--------------------|------------------------------|
|-------------------|--------------------|------------------------------|
|--7----------------|--5--------3--------|-------------2-------------3--|
|--5----------------|--3--------1--------|-------------2-------------3--|
|-------------------|--------------------|--0--0-0-3-2----0--0-0-3-2----|


                                                              
|------------------------------|------------------------------|
|------------------------------|------------------------------|
|------------------------------|------------------------------|
|-------------2------1------3--|-------------2-------------3--|
|-------------2------1------3--|-------------2-------------3--|
|--0--0-0-3-2----0-0----0-0----|--0--0-0-3-2----0--0-0-3-2----|


                                                                 
|------------------------------|---------------------------------|
|------------------------------|---------------------------------|
|------------------------------|---------------------------------|
|-------------2------1------3--|---------------------------------|
|-------------2------1------3--|---------8h7h8-7---------8h7h8h7-|
|--0--0-0-3-2----0-0----0-0----|--0--0-0---------0--0--0---------|


                                                                    
|---------------------------------|---------------------------------|
|---------------------------------|---------------------------------|
|---------------------------------|---------------------------------|
|---------------------------------|---------------------------------|
|---------8h7h8-7---------8h7h8h7-|---------8h7h8-7---------8h7h8h7-|
|--0--0-0---------0--0--0---------|--0--0-0---------0--0--0---------|


                                                                            
|---------------------------------|-------------------|---------------------|
|---------------------------------|-------------------|---------------------|
|---------------------------------|-------------------|---------------------|
|---------------------------------|--7----------------|---------------------|
|---------8h7h8-7---------8h7h8h7-|--5----------------|------------7/-14/---|
|--0--0-0---------0--0--0---------|-------------------|------------5/-12/---|


                                                                    
|---------------------------------|---------------------------------|
|---------------------------------|---------------------------------|
|---------------------------------|---------------------------------|
|---------------------------------|---------------------------------|
|---------8h7h8-7---------8h7h8h7-|---------8h7h8-7---------8h7h8h7-|
|--0--0-0---------0--0--0---------|--0--0-0---------0--0--0---------|


                                               
|-------------------|--------------------------|
|-------------------|--------------------------|
|-------------------|--------------------------|
|--7----------------|--9---10------10---9---7--|
|--5----------------|--7---8-------8----7---5--|
|-------------------|-----------0--------------|


                                                                    
|---------------------------------|---------------------------------|
|---------------------------------|---------------------------------|
|---------------------------------|---------------------------------|
| --------------------------------|---------------------------------|
|---------8h7h8-7---------8h7h8h7-|---------8h7h8-7---------8h7h8h7-|
|--0--0-0---------0--0--0---------|--0--0-0---------0--0--0---------|


                                                                    
|-------------------|--------------------|--------------------------|
|-------------------|--------------------|--------------------------|
|-------------------|--------------------|--------------------------|
|--7----------------|--5--------3--------|--7--7--7--7--7--7--7--7--|
|--5----------------|--3--------1--------|--5--5--5--5--5--5--5--5--|
|-------------------|--------------------|--------------------------|


                                                      
|--------------------------|--------------------------|
|--------------------------|--------------------------|
|--------------------------|--------------------------|
|--7--7--7--7--7--7--7--5--|--7--7--7--7--7--7--7--7--|
|--5--5--5--5--5--5--5--3--|--5--5--5--5--5--5--5--5--|
|--------------------------|--------------------------|


                                                      
|--------------------------|--------------------------|
|--------------------------|--------------------------|
|--------------------------|--------------------------|
|--7--7--7--7--7--7--5--5--|--3--3--3--3--3--3--3--3--|
|--5--5--5--5--5--5--3--3--|--1--1--1--1--1--1--1--1--|
|--------------------------|--------------------------|


                                                      
|--------------------------|--------------------------|
|--------------------------|--------------------------|
|--------------------------|--------------------------|
|--3--3--3--3--3--3--3--3--|--5--5--5--5--5--5--5--5--|
|--1--1--1--1--1--1--1--1--|--3--3--3--3--3--3--3--3--|
|--------------------------|--------------------------|


                                                      
|--------------------------|--------------------------|
|--------------------------|--------------------------|
|--------------------------|--------------------------|
|--7--7--7--7--7--7--7--7--|--7--7--7--7--7--7--7--7--|
|--4--4--4--4--4--4--4--4--|--5--5--5--5--5--5--5--5--|
|--------------------------|--------------------------|


                                                      
|--------------------------|--------------------------|
|--------------------------|--------------------------|
|--------------------------|--------------------------|
|--7--7--7--7--7--7--7--5--|--7--7--7--7--7--7--7--7--|
|--5--5--5--5--5--5--5--3--|--5--5--5--5--5--5--5--5--|
|--------------------------|--------------------------|


                                                      
|--------------------------|--------------------------|
|--------------------------|--------------------------|
|--------------------------|--------------------------|
|--7--7--7--7--7--7--5--5--|--3--3--3--3--3--3--3--3--|
|--5--5--5--5--5--5--3--3--|--1--1--1--1--1--1--1--1--|
|--------------------------|--------------------------|


                                                      
|--------------------------|--------------------------|
|--------------------------|--------------------------|
|--------------------------|--------------------------|
|--3--3--3--3--3--3--3--3--|--5--5--5--5--5--5--5--5--|
|--1--1--1--1--1--1--1--1--|--3--3--3--3--3--3--3--3--|
|--------------------------|--------------------------|


                                                             
--------------------------|---------------------------------|
--------------------------|---------------------------------|
--------------------------|---------------------------------|
--7--7--7--7--7--7--7--7--|---------------------------------|
--4--4--4--4--4--4--4--4--|---------8h7h8-7---------8h7h8h7-|
--------------------------|--0--0-0---------0--0--0---------|


                                                                    
---------------------------------|---------------------------------|
---------------------------------|---------------------------------|
---------------------------------|---------------------------------|
---------------------------------|---------------------------------|
---------8h7h8-7---------8h7h8h7-|---------8h7h8-7---------8h7h8h7-|
--0--0-0---------0--0--0---------|--0--0-0---------0--0--0---------|


                                                                    
---------------------------------|---------------------------------|
---------------------------------|---------------------------------|
---------------------------------|---------------------------------|
---------------------------------|---------------------------------|
---------8h7h8-7---------8h7h8h7-|---------8h7h8-7---------8h7h8h7-|
--0--0-0---------0--0--0---------|--0--0-0---------0--0--0---------|


                                                                            
-------------------|---------------------|---------------------------------|
-------------------|---------------------|---------------------------------|
-------------------|---------------------|---------------------------------|
--7----------------|---------------------|---------------------------------|
--5----------------|------------7/-14/---|---------8h7h8-7---------8h7h8h7-|
-------------------|------------5/-12/---|--0--0-0---------0--0--0---------|


                                                      
---------------------------------|-------------------|
---------------------------------|-------------------|
---------------------------------|-------------------|
---------------------------------|--7----------------|
---------8h7h8-7---------8h7h8h7-|--5----------------|
--0--0-0---------0--0--0---------|-------------------|


                                                             
--------------------------|---------------------------------|
--------------------------|---------------------------------|
--------------------------|---------------------------------|
--9---10------10---9---7--|---------------------------------|
--7---8-------8----7---5--|---------8h7h8-7---------8h7h8h7-|
-----------0--------------|--0--0-0---------0--0--0---------|


                                                                           
---------------------------------|-------------------|--------------------|
---------------------------------|-------------------|--------------------|
---------------------------------|-------------------|--------------------|
---------------------------------|--7----------------|--5--------3--------|
---------8h7h8-7---------8h7h8h7-|--5----------------|--3--------1--------|
--0--0-0---------0--0--0---------|-------------------|--------------------|


                                                      
--------------------------|--------------------------|
--------------------------|--------------------------|
--------------------------|--------------------------|
--7--7--7--7--7--7--7--7--|--7--7--7--7--7--7--7--5--|
--5--5--5--5--5--5--5--5--|--5--5--5--5--5--5--5--3--|
--------------------------|--------------------------|


                                                      
--------------------------|--------------------------|
--------------------------|--------------------------|
--------------------------|--------------------------|
--7--7--7--7--7--7--7--7--|--7--7--7--7--7--7--5--5--|
--5--5--5--5--5--5--5--5--|--5--5--5--5--5--5--3--3--|
--------------------------|--------------------------|


                                                      
--------------------------|--------------------------|
--------------------------|--------------------------|
--------------------------|--------------------------|
--3--3--3--3--3--3--3--3--|--3--3--3--3--3--3--3--3--|
--1--1--1--1--1--1--1--1--|--1--1--1--1--1--1--1--1--|
--------------------------|--------------------------|


                                                      
--------------------------|--------------------------|
--------------------------|--------------------------|
--------------------------|--------------------------|
--5--5--5--5--5--5--5--5--|--7--7--7--7--7--7--7--7--|
--3--3--3--3--3--3--3--3--|--4--4--4--4--4--4--4--4--|
--------------------------|--------------------------|


                                                      
--------------------------|--------------------------|
--------------------------|--------------------------|
--------------------------|--------------------------|
--7--7--7--7--7--7--7--7--|--7--7--7--7--7--7--7--5--|
--5--5--5--5--5--5--5--5--|--5--5--5--5--5--5--5--3--|
--------------------------|--------------------------|


                                                      
--------------------------|--------------------------|
--------------------------|--------------------------|
--------------------------|--------------------------|
--7--7--7--7--7--7--7--7--|--7--7--7--7--7--7--5--5--|
--5--5--5--5--5--5--5--5--|--5--5--5--5--5--5--3--3--|
--------------------------|--------------------------|


                                                      
--------------------------|--------------------------|
--------------------------|--------------------------|
--------------------------|--------------------------|
--3--3--3--3--3--3--3--3--|--3--3--3--3--3--3--3--3--|
--1--1--1--1--1--1--1--1--|--1--1--1--1--1--1--1--1--|
--------------------------|--------------------------|


                                                                          
--------------------------|--------------------------|-------------------|
--------------------------|--------------------------|-------------------|
--------------------------|--------------------------|-------------------|
--5--5--5--5--5--5--5--5--|--7--7--7--7--7--7--7--7--|--5----------------|
--3--3--3--3--3--3--3--3--|--4--4--4--4--4--4--4--4--|--5----------------|
--------------------------|--------------------------|--3----------------|


                                                                                
-------------------|-------------------|-------------------|-------------------|
-------------------|-------------------|-------------------|-------------------|
-------------------|--4----------------|-------------------|-------------------|
--7----------------|--4----------------|--7----------------|--5----------------|
--7----------------|--2----------------|--4----------------|--5----------------|
--5----------------|-------------------|-------------------|--3----------------|


                                                            
-------------------|-------------------|-------------------|
-------------------|-------------------|-------------------|
-------------------|--4----------------|-------------------|
--7----------------|--4----------------|--7----------------|
--7----------------|--2----------------|--7----------------|
--5----------------|-------------------|--5----------------|


                                                      
--------------------------|--------------------------|
--------------------------|--------------------------|
--------------------------|--------------------------|
--------7--------7-----7--|--------9--------9-----9--|
-----5--------5-----------|-----7--------7-----------|
--3--------3--------3-----|--5--------5--------5-----|


                                                              
-----------------------------|-------------------------------|
-----------------------------|-------------------------------|
-----------------------------|-------------------------------|
--------11--------11-----11--|---------14---------14-----14/-|
-----9---------9-------------|-----11---------11-------------|
--7---------7---------7------|--9----------9----------9------|


                                                                          
--------------------------|--------------------------|-------------------|
--------------------------|--------------------------|-------------------|
--------------------------|--------------------------|--4----------------|
--------7--------7-----7--|--------9--------9-----9--|--4----------------|
-----5--------5-----------|-----7--------7-----------|--2----------------|
--3--------3--------3-----|--5--------5--------5-----|-------------------|


                                                                            
                                                  
|--------------------------|--------------------------|
|--------------------------|--------------------------|
|--------------------------|--------------------------|
|--------------------------|--7--7--7--7--7--7--7--7--|
|--7--7--7--7--7--7--7--7--|--5--5--5--5--5--5--5--5--|
|--5--5--5--5--5--5--5--5--|--------------------------|


                                                      
--------------------------|--------------------------|
--------------------------|--------------------------|
--------------------------|--------------------------|
--7--7--7--7--7--7--7--5--|--7--7--7--7--7--7--7--7--|
--5--5--5--5--5--5--5--3--|--5--5--5--5--5--5--5--5--|
--------------------------|--------------------------|


                                                      
--------------------------|--------------------------|
--------------------------|--------------------------|
--------------------------|--------------------------|
--7--7--7--7--7--7--5--5--|--3--3--3--3--3--3--3--3--|
--5--5--5--5--5--5--3--3--|--1--1--1--1--1--1--1--1--|
--------------------------|--------------------------|


                                                      
--------------------------|--------------------------|
--------------------------|--------------------------|
--------------------------|--------------------------|
--3--3--3--3--3--3--3--3--|--5--5--5--5--5--5--5--5--|
--1--1--1--1--1--1--1--1--|--3--3--3--3--3--3--3--3--|
--------------------------|--------------------------|


                                                        
--------------------------|----------------------------|
--------------------------|----------------------------|
--------------------------|----14--12----11--12--------|
--7--7--7--7--7--7--7--9--|------------------------12--|
--4--4--4--4--4--4--4--7--|----------------------------|
--------------------------|----------------------------|


                                                                 
---------------------------------|------------------------------|
---------------------------------|------------------------------|
---------------------------------|------14--12----11--12--------|
----14----11----12--11-12-11-----|------------------------14----|
-----------------------------12--|--14--------------------------|
---------------------------------|------------------------------|


                                                            
------------------------------|----------------------------|
------------------------------|----------------------------|
--11--12----------------------|----14--12----11--12--------|
----------14----12--14--12----|------------------------12--|
------------------------------|----------------------------|
------------------------------|----------------------------|


                                                                 
---------------------------------|------------------------------|
---------------------------------|------------------------------|
---------------------------------|------14--12----11--12--------|
----14----10----12--10-12-10-----|------------------------14----|
-----------------------------12--|--14--------------------------|
---------------------------------|------------------------------|


                                                      
------------------------|----------------------------|
------------------------|----------------------------|
--11--12----------------|----14--12----11--12--------|
----------14------------|------------------------12--|
------------------------|----------------------------|
------------------------|----------------------------|


                                                                 
---------------------------------|------------------------------|
---------------------------------|------------------------------|
---------------------------------|------14--12----11--12--------|
----14----11----12--11-12-11-----|------------------------14----|
-----------------------------12--|--14--------------------------|
---------------------------------|------------------------------|


                                                            
------------------------------|----------------------------|
------------------------------|----------------------------|
--11--12----------------------|----14--12----11--12--------|
----------14----12--14--12----|------------------------12--|
------------------------------|----------------------------|
------------------------------|----------------------------|


                                                                 
---------------------------------|------------------------------|
---------------------------------|------------------------------|
---------------------------------|------14--12----11--12--------|
----14----10----12--10-12-10-----|------------------------14----|
-----------------------------12--|--14--------------------------|
---------------------------------|------------------------------|


                                                                   
------------------------|--------------------|--------------------|
------------------------|--------------------|--------------------|
--11--12----------------|--4--------4--------|--4--------4--------|
----------14------------|--2--------2--------|--2--------2--------|
------------------------|--2--------2--------|--2--------2--------|
------------------------|--0--------0--------|--0--------0--------|


                                         
-------------------|-------------------||
-------------------|-------------------||
--4----------------|--4----------------||
--2----------------|--2----------------||
--2----------------|--2----------------||
--0----------------|--0----------------||

Michael Ammot Solo' :

----------------------------------|----------------------------------|
----------15----------15----------|----------14----------14------14--|
--12--14------12--14------12--14--|--12--14------12--14------12------|
----------------------------------|----------------------------------|
----------------------------------|----------------------------------|
----------------------------------|----------------------------------|


                                                                      
----------------------------------|----------------------------------|
------12--14------12--14------12--|--14------12--14------12--14------|
--11----------11----------11------|------11----------11----------12--|
----------------------------------|----------------------------------|
----------------------------------|----------------------------------|
----------------------------------|----------------------------------|


                                                                      
----------------------------------|----------------------------------|
----------15----------15----------|----------14----------14------14--|
--12--14------12--14------12--14--|--12--14------12--14------12------|
----------------------------------|----------------------------------|
----------------------------------|----------------------------------|
----------------------------------|----------------------------------|


                                                                      
----------------------------------|----------------------------------|
------12--14------12--14------12--|--14------12--14------12--14------|
--11----------11----------11------|------11----------11----------12--|
----------------------------------|----------------------------------|
----------------------------------|----------------------------------|
----------------------------------|----------------------------------|


                                                                      
----------------------------------|----------------------------------|
----------15----------15----------|----------14----------14------14--|
--12--14------12--14------12--14--|--12--14------12--14------12------|
----------------------------------|----------------------------------|
----------------------------------|----------------------------------|
----------------------------------|----------------------------------|


                                                                      
----------------------------------|----------------------------------|
------12--14------12--14------12--|--14------12--14------12--14------|
--11----------11----------11------|------11----------11----------12--|
----------------------------------|----------------------------------|
----------------------------------|----------------------------------|
----------------------------------|----------------------------------|


                                                                      
----------------------------------|----------------------------------|
----------15----------15----------|----------14----------14------14--|
--12--14------12--14------12--14--|--12--14------12--14------12------|
----------------------------------|----------------------------------|
----------------------------------|----------------------------------|
----------------------------------|----------------------------------|


                                                                            
----------------------------------|---------------------|
------12--14------12--14--12--14--|--12/-----------x----|
--11----------11------------------|---------------------|
----------------------------------|---------------------|
----------------------------------|---------------------|
----------------------------------|---------------------|

Secondary Guitar - Christopher Ammot
Tuning - C G C F A D

||--------------------|---------------------|--------------------|
||--------------------|---------------------|--------------------|
||--------------------|---------------------|--------------------|
||--------2--------3--|--------2----1----3--|--------2--------3--|
||--------2--------3--|--------2----1----3--|--------2--------3--|
||--------------------|---------------------|--------------------|


                                                     
---------------------|------------------------------|
---------------------|------------------------------|
---------------------|------------------------------|
--------2----1----3--|-------------2-------------3--|
--------2----1----3--|-------------2-------------3--|
---------------------|--0--0-0-3-2----0--0-0-3-2----|


                                                              
------------------------------|------------------------------|
------------------------------|------------------------------|
------------------------------|------------------------------|
-------------2------1------3--|-------------2-------------3--|
-------------2------1------3--|-------------2-------------3--|
--0--0-0-3-2----0-0----0-0----|--0--0-0-3-2----0--0-0-3-2----|


                                                              
------------------------------|------------------------------|
------------------------------|------------------------------|
------------------------------|------------------------------|
-------------2------1------3--|-------------2-------------3--|
-------------2------1------3--|-------------2-------------3--|
--0--0-0-3-2----0-0----0-0----|--0--0-0-3-2----0--0-0-3-2----|


                                                              
------------------------------|------------------------------|
------------------------------|------------------------------|
------------------------------|------------------------------|
-------------2------1------3--|-------------2-------------3--|
-------------2------1------3--|-------------2-------------3--|
--0--0-0-3-2----0-0----0-0----|--0--0-0-3-2----0--0-0-3-2----|


                                                                 
------------------------------|---------------------------------|
------------------------------|---------------------------------|
------------------------------|---------------------------------|
-------------2------1------3--|---------------------------------|
-------------2------1------3--|---------8h7h8-7---------8h7h8h7-|
--0--0-0-3-2----0-0----0-0----|--0--0-0---------0--0--0---------|


                                                                    
---------------------------------|---------------------------------|
---------------------------------|---------------------------------|
---------------------------------|---------------------------------|
---------------------------------|---------------------------------|
---------8h7h8-7---------8h7h8h7-|---------8h7h8-7---------8h7h8h7-|
--0--0-0---------0--0--0---------|--0--0-0---------0--0--0---------|


                                                                            
---------------------------------|-------------------|---------------------|
---------------------------------|-------------------|---------------------|
---------------------------------|-------------------|---------------------|
---------------------------------|--7----------------|---------------------|
---------8h7h8-7---------8h7h8h7-|--5----------------|------------7/-14/---|
--0--0-0---------0--0--0---------|-------------------|------------5/-12/---|


                                                                    
---------------------------------|---------------------------------|
---------------------------------|---------------------------------|
---------------------------------|---------------------------------|
---------------------------------|---------------------------------|
---------8h7h8-7---------8h7h8h7-|---------8h7h8-7---------8h7h8h7-|
--0--0-0---------0--0--0---------|--0--0-0---------0--0--0---------|


                                                                      
-------------------|-------------------------------------------------|
-------------------|-------------------------------------------------|
-------------------|-------------------------------------------------|
--7----------------|----------16/15/14/13/12/11/10/9/8/7/6/5/4/3/2/1-|
--5----------------|----------16/15/14/13/12/11/10/9/8/7/6/5/4/3/2/1-|
-------------------|----------16/15/14/13/12/11/10/9/8/7/6/5/4/3/2/1-|


                                                                    
---------------------------------|---------------------------------|
---------------------------------|---------------------------------|
---------------------------------|---------------------------------|
---------------------------------|---------------------------------|
---------8h7h8-7---------8h7h8h7-|---------8h7h8-7---------8h7h8h7-|
--0--0-0---------0--0--0---------|--0--0-0---------0--0--0---------|


                                                                        
-------------------|--------------------|------------------------------|
-------------------|--------------------|------------------------------|
-------------------|--------------------|------------------------------|
--7----------------|--5--------3--------|-------------2-------------3--|
--5----------------|--3--------1--------|-------------2-------------3--|
-------------------|--------------------|--0--0-0-3-2----0--0-0-3-2----|


                                                              
------------------------------|------------------------------|
------------------------------|------------------------------|
------------------------------|------------------------------|
-------------2------1------3--|-------------2-------------3--|
-------------2------1------3--|-------------2-------------3--|
--0--0-0-3-2----0-0----0-0----|--0--0-0-3-2----0--0-0-3-2----|


                                                                 
------------------------------|---------------------------------|
------------------------------|---------------------------------|
------------------------------|---------------------------------|
-------------2------1------3--|---------------------------------|
-------------2------1------3--|---------8h7h8-7---------8h7h8h7-|
--0--0-0-3-2----0-0----0-0----|--0--0-0---------0--0--0---------|


                                                                    
---------------------------------|---------------------------------|
---------------------------------|---------------------------------|
---------------------------------|---------------------------------|
---------------------------------|---------------------------------|
---------8h7h8-7---------8h7h8h7-|---------8h7h8-7---------8h7h8h7-|
--0--0-0---------0--0--0---------|--0--0-0---------0--0--0---------|


                                                                            
---------------------------------|-------------------|---------------------|
---------------------------------|-------------------|---------------------|
---------------------------------|-------------------|---------------------|
---------------------------------|--7----------------|---------------------|
---------8h7h8-7---------8h7h8h7-|--5----------------|------------7/-14/---|
--0--0-0---------0--0--0---------|-------------------|------------5/-12/---|


                                                                    
---------------------------------|---------------------------------|
---------------------------------|---------------------------------|
---------------------------------|---------------------------------|
---------------------------------|---------------------------------|
---------8h7h8-7---------8h7h8h7-|---------8h7h8-7---------8h7h8h7-|
--0--0-0---------0--0--0---------|--0--0-0---------0--0--0---------|


                                               
-------------------|--------------------------|
-------------------|--------------------------|
-------------------|--------------------------|
--7----------------|--9---10------10---9---7--|
--5----------------|--7---8-------8----7---5--|
-------------------|-----------0--------------|


                                                                    
---------------------------------|---------------------------------|
---------------------------------|---------------------------------|
---------------------------------|---------------------------------|
---------------------------------|---------------------------------|
---------8h7h8-7---------8h7h8h7-|---------8h7h8-7---------8h7h8h7-|
--0--0-0---------0--0--0---------|--0--0-0---------0--0--0---------|


                                                                    
-------------------|--------------------|--------------------------|
-------------------|--------------------|--------------------------|
-------------------|--------------------|--------------------------|
--7----------------|--5--------3--------|--7--7--7--7--7--7--7--7--|
--5----------------|--3--------1--------|--5--5--5--5--5--5--5--5--|
-------------------|--------------------|--------------------------|


                                                      
--------------------------|--------------------------|
--------------------------|--------------------------|
--------------------------|--------------------------|
--7--7--7--7--7--7--7--5--|--7--7--7--7--7--7--7--7--|
--5--5--5--5--5--5--5--3--|--5--5--5--5--5--5--5--5--|
--------------------------|--------------------------|


                                                      
--------------------------|--------------------------|
--------------------------|--------------------------|
--------------------------|--------------------------|
--7--7--7--7--7--7--5--5--|--3--3--3--3--3--3--3--3--|
--5--5--5--5--5--5--3--3--|--1--1--1--1--1--1--1--1--|
--------------------------|--------------------------|


                                                      
--------------------------|--------------------------|
--------------------------|--------------------------|
--------------------------|--------------------------|
--3--3--3--3--3--3--3--3--|--5--5--5--5--5--5--5--5--|
--1--1--1--1--1--1--1--1--|--3--3--3--3--3--3--3--3--|
--------------------------|--------------------------|


                                                      
--------------------------|--------------------------|
--------------------------|--------------------------|
--------------------------|--------------------------|
--7--7--7--7--7--7--7--7--|--7--7--7--7--7--7--7--7--|
--4--4--4--4--4--4--4--4--|--5--5--5--5--5--5--5--5--|
--------------------------|--------------------------|


                                                      
--------------------------|--------------------------|
--------------------------|--------------------------|
--------------------------|--------------------------|
--7--7--7--7--7--7--7--5--|--7--7--7--7--7--7--7--7--|
--5--5--5--5--5--5--5--3--|--5--5--5--5--5--5--5--5--|
--------------------------|--------------------------|


                                                      
--------------------------|--------------------------|
--------------------------|--------------------------|
--------------------------|--------------------------|
--7--7--7--7--7--7--5--5--|--3--3--3--3--3--3--3--3--|
--5--5--5--5--5--5--3--3--|--1--1--1--1--1--1--1--1--|
--------------------------|--------------------------|


                                                      
--------------------------|--------------------------|
--------------------------|--------------------------|
--------------------------|--------------------------|
--3--3--3--3--3--3--3--3--|--5--5--5--5--5--5--5--5--|
--1--1--1--1--1--1--1--1--|--3--3--3--3--3--3--3--3--|
--------------------------|--------------------------|


                                                             
--------------------------|---------------------------------|
--------------------------|---------------------------------|
--------------------------|---------------------------------|
--7--7--7--7--7--7--7--7--|---------------------------------|
--4--4--4--4--4--4--4--4--|---------8h7h8-7---------8h7h8h7-|
--------------------------|--0--0-0---------0--0--0---------|


                                                                    
---------------------------------|---------------------------------|
---------------------------------|---------------------------------|
---------------------------------|---------------------------------|
---------------------------------|---------------------------------|
---------8h7h8-7---------8h7h8h7-|---------8h7h8-7---------8h7h8h7-|
--0--0-0---------0--0--0---------|--0--0-0---------0--0--0---------|


                                                                    
---------------------------------|---------------------------------|
---------------------------------|---------------------------------|
---------------------------------|---------------------------------|
---------------------------------|---------------------------------|
---------8h7h8-7---------8h7h8h7-|---------8h7h8-7---------8h7h8h7-|
--0--0-0---------0--0--0---------|--0--0-0---------0--0--0---------|


                                                                            
-------------------|---------------------|---------------------------------|
-------------------|---------------------|---------------------------------|
-------------------|---------------------|---------------------------------|
--7----------------|---------------------|---------------------------------|
--5----------------|------------7/-14/---|---------8h7h8-7---------8h7h8h7-|
-------------------|------------5/-12/---|--0--0-0---------0--0--0---------|


                                                      
---------------------------------|-------------------|
---------------------------------|-------------------|
---------------------------------|-------------------|
---------------------------------|--7----------------|
---------8h7h8-7---------8h7h8h7-|--5----------------|
--0--0-0---------0--0--0---------|-------------------|


                                                             
--------------------------|---------------------------------|
--------------------------|---------------------------------|
--------------------------|---------------------------------|
--9---10------10---9---7--|---------------------------------|
--7---8-------8----7---5--|---------8h7h8-7---------8h7h8h7-|
-----------0--------------|--0--0-0---------0--0--0---------|


                                                                           
---------------------------------|-------------------|--------------------|
---------------------------------|-------------------|--------------------|
---------------------------------|-------------------|--------------------|
---------------------------------|--7----------------|--5--------3--------|
---------8h7h8-7---------8h7h8h7-|--5----------------|--3--------1--------|
--0--0-0---------0--0--0---------|-------------------|--------------------|


                                                      
--------------------------|--------------------------|
--------------------------|--------------------------|
--------------------------|--------------------------|
--7--7--7--7--7--7--7--7--|--7--7--7--7--7--7--7--5--|
--5--5--5--5--5--5--5--5--|--5--5--5--5--5--5--5--3--|
--------------------------|--------------------------|


                                                      
--------------------------|--------------------------|
--------------------------|--------------------------|
--------------------------|--------------------------|
--7--7--7--7--7--7--7--7--|--7--7--7--7--7--7--5--5--|
--5--5--5--5--5--5--5--5--|--5--5--5--5--5--5--3--3--|
--------------------------|--------------------------|


                                                      
--------------------------|--------------------------|
--------------------------|--------------------------|
--------------------------|--------------------------|
--3--3--3--3--3--3--3--3--|--3--3--3--3--3--3--3--3--|
--1--1--1--1--1--1--1--1--|--1--1--1--1--1--1--1--1--|
--------------------------|--------------------------|


                                                      
--------------------------|--------------------------|
--------------------------|--------------------------|
--------------------------|--------------------------|
--5--5--5--5--5--5--5--5--|--7--7--7--7--7--7--7--7--|
--3--3--3--3--3--3--3--3--|--4--4--4--4--4--4--4--4--|
--------------------------|--------------------------|


                                                      
--------------------------|--------------------------|
--------------------------|--------------------------|
--------------------------|--------------------------|
--7--7--7--7--7--7--7--7--|--7--7--7--7--7--7--7--5--|
--5--5--5--5--5--5--5--5--|--5--5--5--5--5--5--5--3--|
--------------------------|--------------------------|


                                                      
--------------------------|--------------------------|
--------------------------|--------------------------|
--------------------------|--------------------------|
--7--7--7--7--7--7--7--7--|--7--7--7--7--7--7--5--5--|
--5--5--5--5--5--5--5--5--|--5--5--5--5--5--5--3--3--|
--------------------------|--------------------------|


                                                      
--------------------------|--------------------------|
--------------------------|--------------------------|
--------------------------|--------------------------|
--3--3--3--3--3--3--3--3--|--3--3--3--3--3--3--3--3--|
--1--1--1--1--1--1--1--1--|--1--1--1--1--1--1--1--1--|
--------------------------|--------------------------|


                                                                          
--------------------------|--------------------------|-------------------|
--------------------------|--------------------------|-------------------|
--------------------------|--------------------------|-------------------|
--5--5--5--5--5--5--5--5--|--7--7--7--7--7--7--7--7--|--5----------------|
--3--3--3--3--3--3--3--3--|--4--4--4--4--4--4--4--4--|--5----------------|
--------------------------|--------------------------|--3----------------|


                                                                                
-------------------|-------------------|-------------------|-------------------|
-------------------|-------------------|-------------------|-------------------|
-------------------|--4----------------|--9----------------|-------------------|
--7----------------|--4----------------|--7----------------|--5----------------|
--7----------------|--2----------------|--4----------------|--5----------------|
--5----------------|-------------------|-------------------|--3----------------|


                                                            
-------------------|-------------------|-------------------|
-------------------|-------------------|-------------------|
-------------------|--4----------------|-------------------|
--7----------------|--4----------------|--7----------------|
--7----------------|--2----------------|--7----------------|
--5----------------|-------------------|--5----------------|


                                                      
--------------------------|--------------------------|
--------------------------|--------------------------|
--------------------------|--------------------------|
--------7--------7-----7--|--------9--------9-----9--|
-----5--------5-----------|-----7--------7-----------|
--3--------3--------3-----|--5--------5--------5-----|


                                                              
-----------------------------|-------------------------------|
-----------------------------|-------------------------------|
-----------------------------|-------------------------------|
--------11--------11-----11--|---------14---------14-----14/-|
-----9---------9-------------|-----11---------11-------------|
--7---------7---------7------|--9----------9----------9------|


                                                                          
--------------------------|--------------------------|-------------------|
--------------------------|--------------------------|-------------------|
--------------------------|--------------------------|--4----------------|
--------7--------7-----7--|--------9--------9-----9--|--4----------------|
-----5--------5-----------|-----7--------7-----------|--2----------------|
--3--------3--------3-----|--5--------5--------5-----|-------------------|

                                                                         
|--------------------------|--------------------------|
|--------------------------|--------------------------|
|--------------------------|--------------------------|
|--------------------------|--7--7--7--7--7--7--7--7--|
|--7--7--7--7--7--7--7--7--|--5--5--5--5--5--5--5--5--|
|--5--5--5--5--5--5--5--5--|--------------------------|


                                                      
--------------------------|--------------------------|
--------------------------|--------------------------|
--------------------------|--------------------------|
--7--7--7--7--7--7--7--5--|--7--7--7--7--7--7--7--7--|
--5--5--5--5--5--5--5--3--|--5--5--5--5--5--5--5--5--|
--------------------------|--------------------------|


                                                      
--------------------------|--------------------------|
--------------------------|--------------------------|
--------------------------|--------------------------|
--7--7--7--7--7--7--5--5--|--3--3--3--3--3--3--3--3--|
--5--5--5--5--5--5--3--3--|--1--1--1--1--1--1--1--1--|
--------------------------|--------------------------|


                                                      
--------------------------|--------------------------|
--------------------------|--------------------------|
--------------------------|--------------------------|
--3--3--3--3--3--3--3--3--|--5--5--5--5--5--5--5--5--|
--1--1--1--1--1--1--1--1--|--3--3--3--3--3--3--3--3--|
--------------------------|--------------------------|


                                                        
--------------------------|----------------------------|
--------------------------|----------------------------|
--------------------------|----14--12----11--12--------|
--7--7--7--7--7--7--7--9--|------------------------12--|
--4--4--4--4--4--4--4--7--|----------------------------|
--------------------------|----------------------------|


                                                                 
---------------------------------|------------------------------|
---------------------------------|------------------------------|
---------------------------------|------14--12----11--12--------|
----14----11----12--11-12-11-----|------------------------14----|
-----------------------------12--|--14--------------------------|
---------------------------------|------------------------------|


                                                            
------------------------------|----------------------------|
------------------------------|----------------------------|
--11--12----------------------|----14--12----11--12--------|
----------14----12--14--12----|------------------------12--|
------------------------------|----------------------------|
------------------------------|----------------------------|


                                                                 
---------------------------------|------------------------------|
---------------------------------|------------------------------|
---------------------------------|------14--12----11--12--------|
----14----10----12--10-12-10-----|------------------------14----|
-----------------------------12--|--14--------------------------|
---------------------------------|------------------------------|


                                                      
------------------------|----------------------------|
------------------------|----------------------------|
--11--12----------------|----14--12----11--12--------|
----------14------------|------------------------12--|
------------------------|----------------------------|
------------------------|----------------------------|


                                                                 
---------------------------------|------------------------------|
---------------------------------|------------------------------|
---------------------------------|------14--12----11--12--------|
----14----11----12--11-12-11-----|------------------------14----|
-----------------------------12--|--14--------------------------|
---------------------------------|------------------------------|


                                                            
------------------------------|----------------------------|
------------------------------|----------------------------|
--11--12----------------------|----14--12----11--12--------|
----------14----12--14--12----|------------------------12--|
------------------------------|----------------------------|
------------------------------|----------------------------|


                                                                 
---------------------------------|------------------------------|
---------------------------------|------------------------------|
---------------------------------|------14--12----11--12--------|
----14----10----12--10-12-10-----|------------------------14----|
-----------------------------12--|--14--------------------------|
---------------------------------|------------------------------|


                                                                   
------------------------|--------------------|--------------------|
------------------------|--------------------|--------------------|
--11--12----------------|--4--------4--------|--4--------4--------|
----------14------------|--2--------2--------|--2--------2--------|
------------------------|--2--------2--------|--2--------2--------|
------------------------|--0--------0--------|--0--------0--------|


                                         
-------------------|-------------------||
-------------------|-------------------||
--4----------------|--4----------------||
--2----------------|--2----------------||
--2----------------|--2----------------||
--0----------------|--0----------------||

Christopher Ammot - Solo :

----------------------------------|----------------------------------|
----------15----------15----------|----------14----------14------14--|
--12--14------12--14------12--14--|--12--14------12--14------12------|
----------------------------------|----------------------------------|
----------------------------------|----------------------------------|
----------------------------------|----------------------------------|


                                                                      
----------------------------------|----------------------------------|
------12--14------12--14------12--|--14------12--14------12--14------|
--11----------11----------11------|------11----------11----------12--|
----------------------------------|----------------------------------|
----------------------------------|----------------------------------|
----------------------------------|----------------------------------|


                                                                      
----------------------------------|----------------------------------|
----------15----------15----------|----------14----------14------14--|
--12--14------12--14------12--14--|--12--14------12--14------12------|
----------------------------------|----------------------------------|
----------------------------------|----------------------------------|
----------------------------------|----------------------------------|


                                                                      
----------------------------------|----------------------------------|
------12--14------12--14------12--|--14------12--14------12--14------|
--11----------11----------11------|------11----------11----------12--|
----------------------------------|----------------------------------|
----------------------------------|----------------------------------|
----------------------------------|----------------------------------|


                                                                      
----------------------------------|----------------------------------|
----------15----------15----------|----------14----------14------14--|
--12--14------12--14------12--14--|--12--14------12--14------12------|
----------------------------------|----------------------------------|
----------------------------------|----------------------------------|
----------------------------------|----------------------------------|


                                                                      
----------------------------------|----------------------------------|
------12--14------12--14------12--|--14------12--14------12--14------|
--11----------11----------11------|------11----------11----------12--|
----------------------------------|----------------------------------|
----------------------------------|----------------------------------|
----------------------------------|----------------------------------|


                                                                      
----------------------------------|----------------------------------|
----------15----------15----------|----------14----------14------14--|
--12--14------12--14------12--14--|--12--14------12--14------12------|
----------------------------------|----------------------------------|
----------------------------------|----------------------------------|
----------------------------------|----------------------------------|


                                                                            
---------------------------





Comments


Popular Arch Enemy tabs & chords
Dead Eyes See No Future 3 Bass Tabs
Pilgrim Bass Tabs
Rise Of The Tyrant Bass Tabs
Damnations Way 1 Tabs
Dead Inside Tabs
Diva Satanica 1 Tabs
Enter The Machine Tabs
Let The Killing Begin 2 Tabs
The Last Enemy Tabs
Web Of Lies 1 Tabs


Song lyrics



↑ Back to top | Tablatures and chords are parodies/interpretations of the original songs. You may use it for private study, scholarship, research or language learning purposes only
© 2014 AZChords.com Contact us | Privacy policy | DMCA | Add/correct tabs | Request tabs | Top 50 tabs