>
 >
Christopher Amott

Christopher Amott Guitar Tabs

Arch Enemy - Christopher Amott chords, tabs, tablatures, lyrics

Guitar lessons | Add/correct | Request | Top 50 tabs Artists:  A B C D E F G H I J K L M N O P Q R S T U V W X Y Z 0-9

Christopher Amott Guitar Tabs – Arch Enemy

CD, Sheet music, Poster

Do you like Christopher Amott? Share with your friends now
Tabs
C |-------------------9-12_14-9-12------------------------------------9-12-|
G |--------------9-12--------------9-12--------------------------9-12------|
D#|---------9-11------------------------9-11----------------9-11-----------|
A#|----9-11----------------------------------9-11------9-11----------------|
F |9-11-------------------------------------------9-11---------------------|
C |------------------------------------------------------------------------|
   1 3 1 3  1 3  1 4 1  4\4   1 4  1 4  1 3  1 3  1 3  1 3  1 3  1 4  1 4

C |-----------------------------------9-11-12-9-11----9--------------------|
G |9-12--------------------------9-12--------------12---9-12----9----------|
D#|-----9-11----------------9-11-----------------------------11---9-11----9|
A#|----------9-11------9-11--------------------------------------------11--|
F |---------------9-11-----------------------------------------------------|
C |------------------------------------------------------------------------|
   1 4  1 3  1 3  1 3  1 3  1 3  1 4  1 3  4  1 3  4  1 1 4  3  1 1 3  3  1

C |------------12-16-14-14-16-19-16-19-21-19-21-24-19-21-16-19-14-16-12-14-|
G |----------9-------------------------------------------------------------|
D#|-----9-11---------------------------------------------------------------|
A#|9-11--------------------------------------------------------------------|
F |------------------------------------------------------------------------|
C |------------------------------------------------------------------------|
   1 3  1 3  1 1  4  3  1  3  4  1  3  4  1  3  4  1  2  1  2  1  2  1  2

C |11-12-9-11----9---------------------------------------------------------|
G |-----------12---9-12----9-----------------------------------------------|
D#|---------------------11---9-11-8-9----8---------------------------------|
A#|-----------------------------------11---9-11-7-9----7-------------------|
F |-------------------------------------------------11---9-11-7-9----------|
C |---------------------------------------------------------------11-------|
   1  2 1  2  3  1 1 3  2  1 1 3  1 2 4  1 2 4  1 2 4  1 2 4  1 2 4

End of Delay section.

C |------------------------------------------------------------------------|
G |------------------------------------------------------------------------|
D#|11(13)`(11)p9-11(13)-11(13)`(11)p9-11-9----11(13)`(11)p9-11-9-------|
A#|-------------------------------------------11---------------------11----|
F |------------------------------------------------------------------------|
C |------------------------------------------------------------------------|
   3            1 3       3            1 3  1 3  3            1 3  1 3

C |--------9-11-12-11-9h11p9----9-------------------------------16---------|
G |12(14)-------------------12---12-9h12p9----12------------14------------|
D#|-----------------------------------------11----11-9----13---------------|
A#|----------------------------------------------------14------------------|
F |------------------------------------------------------------------------|
C |------------------------------------------------------------------------|
   3       1 2  3  2  1 2  1 3  1 3  1 3  1 2  3  2  1 x  1  2  4

C |12h16p12\11-12p11----11h14p11----11-------12----16p12----12-------------|
G |------------------12----------12----12/14----14-------14----------------|
D#|------------------------------------------------------------------------|
A#|------------------------------------------------------------------------|
F |------------------------------------------------------------------------|
C |------------------------------------------------------------------------|
   1  4  1  1  2  1  2  1  3  1  2  1  2     1  2  4  1  2  1

C |------14----19-14----14-19-19(21)----------------------------------------|
G |14/16----16-------16---------------5p4---4-5p4---4-7p4-5p4---4-7p4-5p4---4|
D#|---------------------------------------6-------6-----------6-----------6--|
A#|--------------------------------------------------------------------------|
F |--------------------------------------------------------------------------|
C |--------------------------------------------------------------------------|
   2     1  2  4  1  2  1  3  3       2 1 3 1 2 1 3 1 4 1 2 1 3 1 4 1 2 1 3 1

   6x
C |--------|
G |5p4---4-|
D#|----6---|
A#|--------|
F |--------|
C |--------|
   2 1 3 1

I'm not too sure how this repeat section goes, because it's more important to
get the groove right than to play all the notes just like Chris...

                                      Repeat as needed
C |----------------------------------|-------------|-----------|
G |5p4-5p4---4-5p4---4---------------|-------------|-----------|
D#|--------6-------6---6-4---4p6-4---|-------------|-4-6-6(8)-|
A#|------------------------6-------6-|-6p4---4-6p4-|-----------|
F |----------------------------------|-----7-------|-----------|
C |----------------------------------|-------------|-----------|
   2 1 2 1 3 1 2 1 3 1 3 1 3 1 3 1 3   3 1 4 1 3 1   1 3 3


C |----------------------------------------------------------------------|
G |12(14)-12(14)-12(14)`(12)p9-14(16)-14(16)-14(17)-14(17)`(14)p12|
D#|----------------------------------------------------------------------|
A#|----------------------------------------------------------------------|
F |----------------------------------------------------------------------|
C |----------------------------------------------------------------------|
   3       3       3            1 3       3       3       3            1

C |14(16)-14(16)`(14)p12-14-12h14p12\11-12-11----11h12p11----12----------------------------|
G |---------------------------------------------14----------14----14p12----14-12-------------|
D#|---------------------------------------------------------------------13-------11-9--------|
A#|-----------------------------------------------------------------------------------11-9-11|
F |------------------------------------------------------------------------------------------|
C |------------------------------------------------------------------------------------------|
   3       3           1   3  1  3  1  1  2  1  3  1  2  1  3  1  3  1  2  3  1  3  1 3  
1 3


    4x(i think)
C |--------9---9|--------9h11p9----9-------------------------------------------------|
G |12(14)---9--|12(16)--------12---12p9----12p9----9------12p9----9----------------|
D#|-------------|-------------------------11------11---11p9------11---11p10p9----11-9|
A#|-------------|-------------------------------------------------------------11-----|
F |-------------|--------------------------------------------------------------------|
C |-------------|--------------------------------------------------------------------|
Since this is a fast part, you should do what's comfortable, i do it sometimes with 3 
fingers, and sometimes with 4.

                                     2x
C |---------------------------------|------------------|---------------------------14-16-17-|
G |---------------------------------|------------------|------------------14-16-17----------|
D#|---------------------------------|---------11-13-14-|---------13-14-16-------------------|
A#|---------------------------------|11-13-14----------|13-14-16----------------------------|
F |--------9-11-12----------11-12-14|------------------|------------------------------------|
C |9-11-12---------11-12-14---------|------------------|------------------------------------|
   1 3  4  1 3  4  1  2  4  1  2  4  1  3  4  1  3  4   1  2  4  1  2  4  1  3  4  1  3  4


C |---------16-17-19----------17-19-21-21(23)-21(23)-|
G |16-17-19----------17-19-21--------------------------|
D#|----------------------------------------------------|
A#|----------------------------------------------------|
F |----------------------------------------------------|
C |----------------------------------------------------|
   1  2  4  1  2  4  1  2  4  1  2  4  3       3

                                              repeat fast
C |------------------------------------------|-------|------------------14-17-19(22)`19-19|
G |------------------------------------------|-------|---------------15--------------------|
D#|---12-16-14----11-14-12----9-12-11---8-11-|9h11p9-|---12-16-16/17-----------------------|
A#|14----------12----------10---------9------|-------|14-----------------------------------|
F |------------------------------------------|-------|-------------------------------------|
C |------------------------------------------|-------|-------------------------------------|
   2  1  4  2  2  1  4  2  2  1 4  3  2 1 3   1 3  1  2  1  3  3     2  1  3  3          3


C |19-17-19-15-19-14-19----19-17-19-15-19-14-19-------------------------------|
G |---------------------17----------------------17-19-17(20)`17-17(vibrato)--|
D#|---------------------------------------------------------------------------|
A#|---------------------------------------------------------------------------|
F |---------------------------------------------------------------------------|
C |---------------------------------------------------------------------------|

This next part i'm also not too sure about, so i just used a pattern i know that sounds similar.
C |---------15-17-19-17-15-14-15-17-15-14----------------------------------|
G |15-17-19-------------------------------17-13-15-17-15-13-12-13-15-13-12-|
D#|------------------------------------------------------------------------|
A#|------------------------------------------------------------------------|
F |------------------------------------------------------------------------|
C |------------------------------------------------------------------------|

--------------------------------------|
--------------------------------------|
14-12-11-12-14-12-11------------------|
---------------------14-10-12-14-12-10|
--------------------------------------|
--------------------------------------|



   Repeat as needed
C |-----------------|--------------------------------|
G |-----------------|--------------------------------|
D#|-----------------|14(17)(huge amounts of vibrato)|
A#|---------10-12-14|--------------------------------|
F |10-12-14---------|--------------------------------|
C |-----------------|--------------------------------|

Now do a dramatic slide up the neck.

End with tapping on the G string (the second thinnest) on the following positions:
5-8-12
5-8-13
5-8-15
5-8-13
5-8-12
5-8-13
5-8-12
4-7-12

And hit the low C and bow to the audience :)





Comments


Popular Arch Enemy tabs & chords
Dead Bury Their Dead Bass Tabs
Dead Eyes See No Future Bass Tabs
Beast Of Man (Solo) Tabs
Carry The Cross Tabs
Intermezzo Liberte Tabs
Intermezzo Liberte 2 Tabs
Let The Killing Begin Tabs
Revolution Begins Intro Tabs
Silent Wars 1 Tabs
Snow Bound 3 Tabs


Song lyrics



↑ Back to top | Tablatures and chords are parodies/interpretations of the original songs. You may use it for private study, scholarship, research or language learning purposes only
© 2014 AZChords.com Contact us | Privacy policy | DMCA | Add/correct tabs | Request tabs | Top 50 tabs