>
 >
Aces High Cover

Aces High Cover Bass Tabs

Arch Enemy - Aces High Cover chords, tabs, tablatures, lyrics

Guitar lessons | Add/correct | Request | Top 50 tabs Artists:  A B C D E F G H I J K L M N O P Q R S T U V W X Y Z 0-9

Aces High Cover Bass Tabs – Arch Enemy

CD, Sheet music, Poster

Do you like Aces High Cover? Share with your friends now
Bass Tabs
G--------------------------
D----------------11------11
A----------------11------11-
E--------------------99----- 77 Intro repeat 

G------------------------------------------
D-7-7777-7---3--3333-3------555555--------- riff A 
A-----------------------------------------
E-----------------------------------------


G-------------------------------------------------------------------
D------1--4-3---------------------1--4-3----------------------------
A---3---------0--4-1-----------3---------0-4--1--0000---------------
E-4------------------2-0--3--4--------------------------3333--------riff b

G---------------------------------------------------riff c
D--------------------------10---8----6--------------
A---3-------5------7--------------------------------
E------0000--0000----0000---------------------------

G-----------------------------------------------
D-----------------------6----8----10------------
A---3------5-------7----------------------------
E-----0000-----0000-----------------------------riff d 

"Run live to fly Fly to live" 
G-------------------------------------
D----------------------------------
A---7----3------5--------------------
E----------------------------------- Repeat 4x riff e 

G--------------------------------------
D--------------------------------------
A--5-----1--------3--------------------
E-------------------------------------- repeat 4x riff f 
G----------------------------------------------------BRIDGE
D---------------------------7-----------------------
A-------5h7-77777--10-7777----77777--------12-10--12------
E---------------------------------------------------------riff g 

REPEAT RIFF  E 4X

G------------------------------------------ solo 
D--5555555--1111----3333------------------
A------------------------------------------
E------------------------------------------4x





Comments


Popular Arch Enemy tabs & chords
Angelclaw 2 Tabs
Black Earth Tabs
Damnations Way Tabs
First Deadly Sin Tabs
Heart Of Darkness Tabs
Instinct Tabs
Intermezzo Liberte 2 Tabs
Ravenous 1 Tabs
Revolution Begins Tabs
Sinister Mephisto 1 Tabs


Song lyrics



↑ Back to top | Tablatures and chords are parodies/interpretations of the original songs. You may use it for private study, scholarship, research or language learning purposes only
© 2014 AZChords.com Contact us | Privacy policy | DMCA | Add/correct tabs | Request tabs | Top 50 tabs