» » »

Arcane Sanctuary, The Gates Bass tabs (ver.1)

Artists:  A B C D E F G H I J K L M N O P Q R S T U V W X Y Z # 

The Gates Bass tabs (ver.1)

Arcane Sanctuary Tabs
 Rating:
4/5 (4 votes)
The Gates lessons Tabs too difficult? Try these video lessons and learn fast
1
                tune down

F||---|------|------|------------------------|-----------------------|
C||---|------|------|------------------------|-----------------------|
G||---|------|------|------------------------|-----------------------|
D||---|------|------|--0--0----0--0----3--3--|----2--2----0--0----0--|


                                                                         
-----------------------|------------------------|-----------------------|
-----------------------|------------------------|-----------------------|
-----------------------|------------------------|-----------------------|
--0----3--3----2--2----|--0--0----0--0----3--3--|----2--2----0--0----0--|


                                                       
-----------------------|---|--------------------------|
-----------------------|---|--------4--5-----5-----4--|
-----------------------|---|--------------------------|
--0----3--3----2--2----|---|--0--0--------0-----0-----|


                                                      
--------------------------|--------------------------|
--------4--5-----5-----4--|--------0--2-----2-----0--|
--------------------------|--------------------------|
--0--0--------0-----0-----|--3--3--------3-----3-----|


                                                      
--------------------------|--------------------------|
--------2--4-----4-----2--|--------4--5-----5-----4--|
--------------------------|--------------------------|
--2--2--------2-----2-----|--0--0--------0-----0-----|


                                                      
--------------------------|--------------------------|
--------4--5-----5-----4--|--------0--2-----2-----0--|
--------------------------|--------------------------|
--0--0--------0-----0-----|--3--3--------3-----3-----|


                                                      
--------------------------|--------------------------|
--------2--4-----4-----2--|--------5--5--4--4--------|
--------------------------|--------------------5--5--|
--2--2--------2-----2-----|--0--0--------------------|


                                                      
--------------------------|--------------------------|
--------------------------|--------5--5--4--4--7--7--|
--3--3--3--3--2--2--------|--------------------------|
--------------------3--2--|--0--0--------------------|


                                                      
--------------------------|--------------------------|
--------------------------|--------5--5--4--4--------|
--3--3--3--3--2--2--2--2--|--------------------5--5--|
--------------------------|--0--0--------------------|


                                                      
--------------------------|--------------------------|
--------------------------|--------5--5--4--4--7--7--|
--3--3--3--3--2--2--------|--------------------------|
--------------------3--2--|--0--0--------------------|


                                                                            
--------------------------|------------------------|-----------------------|
--------------------------|------------------------|-----------------------|
--3--3--3--3--2--2--2--2--|------------------------|-----------------------|
--------------------------|--0--0----0--0----3--3--|----2--2----0--0----0--|


                                                                         
-----------------------|------------------------|-----------------------|
-----------------------|------------------------|-----------------------|
-----------------------|------------------------|-----------------------|
--0----3--3----2--2----|--0--0----0--0----3--3--|----2--2----0--0----0--|


                                                                              
-----------------------|--------------------------|--------------------------|
-----------------------|--------4--5-----5-----4--|--------4--5-----5-----4--|
-----------------------|--------------------------|--------------------------|
--0----3--3----2--2----|--0--0--------0-----0-----|--0--0--------0-----0-----|


                                                      
--------------------------|--------------------------|
--------0--2-----2-----0--|--------2--4-----4-----2--|
--------------------------|--------------------------|
--3--3--------3-----3-----|--2--2--------2-----2-----|


                                                      
--------------------------|--------------------------|
--------4--5-----5-----4--|--------4--5-----5-----4--|
--------------------------|--------------------------|
--0--0--------0-----0-----|--0--0--------0-----0-----|


                                                      
--------------------------|--------------------------|
--------0--2-----2-----0--|--------2--4-----4-----2--|
--------------------------|--------------------------|
--3--3--------3-----3-----|--2--2--------2-----2-----|


                                                      
--------------------------|--------------------------|
--------5--5--4--4--------|--------------------------|
--------------------5--5--|--3--3--3--3--2--2--------|
--0--0--------------------|--------------------3--2--|


                                                      
--------------------------|--------------------------|
--------5--5--4--4--7--7--|--------------------------|
--------------------------|--3--3--3--3--2--2--2--2--|
--0--0--------------------|--------------------------|


                                                      
--------------------------|--------------------------|
--------5--5--4--4--------|--------------------------|
--------------------5--5--|--3--3--3--3--2--2--------|
--0--0--------------------|--------------------3--2--|


                                                                           
--------------------------|--------------------------|------|------|------|
--------5--5--4--4--7--7--|--------------------------|------|------|------|
--------------------------|--3--3--3--3--2--2--2--2--|------|------|------|
--0--0--------------------|--------------------------|------|------|------|


                                                                
------|------|------|------|------|------|---------------------|
------|------|------|------|------|------|---------------------|
------|------|------|------|------|------|---------------------|
------|------|------|------|------|------|--0------------3--5--|


                                                                
--------------------|-------------------|----------------------|
---------------2----|--4----------------|----------------------|
--------------------|-------------------|--5----3----2----0----|
--7-----------------|-------------------|----------------------|


                                                               
---------------------|--------------------|-------------------|
---------------------|--------------------|-------------------|
---------------------|--------------------|-------------------|
--0------------3--5--|--7------------0----|--2----------------|


                                                              
----------------------|-------------------|------------------|
----------------------|-------------------|------------------|
--5----3----2----0----|-------------------|------------------|
----------------------|--0----------------|------------------|


                                                                  
-------------------|------------------|--------------------------|
-------------------|------------------|--------------------4--5--|
-------------------|------------------|--------------------------|
--3----------------|------------------|--0--0--0--0--0--0--------|


                                                      
--------------------------|--------------------------|
--------------------------|--------------------4--5--|
--------------------------|--------------------------|
--0--0--0--0--0--0--0--0--|--3--3--3--3--3--3--------|


                                                      
--------------------------|--------------------------|
--------------------------|--------------------4--5--|
--------------------------|--------------------------|
--3--3--3--3--3--3--3--3--|--0--0--0--0--0--0--------|


                                                      
--------------------------|--------------------------|
--------------------------|--------------------4--5--|
--------------------------|--------------------------|
--0--0--0--0--0--0--0--0--|--3--3--3--3--3--3--------|


                                                      
--------------------------|--------------------------|
--------------------2--4--|--------------------4--5--|
--------------------------|--------------------------|
--2--2--2--2--2--2--------|--0--0--0--0--0--0--------|


                                                      
--------------------------|--------------------------|
--------------------------|--------------------4--5--|
--------------------------|--------------------------|
--0--0--0--0--0--0--0--0--|--3--3--3--3--3--3--------|


                                                      
--------------------------|--------------------------|
--------------------------|--------------------4--5--|
--------------------------|--------------------------|
--3--3--3--3--3--3--3--3--|--0--0--0--0--0--0--------|


                                                      
--------------------------|--------------------------|
--------------------------|--------------------4--5--|
--------------------------|--------------------------|
--0--0--0--0--0--0--0--0--|--3--3--3--3--3--3--------|


                                                      
--------------------------|--------------------------|
--------------------2--4--|--------------------4--5--|
--------------------------|--------------------------|
--2--2--2--2--2--2--------|--0--0--0--0--0--0--------|


                                                      
--------------------------|--------------------------|
--------------------------|--------------------4--5--|
--------------------------|--------------------------|
--0--0--0--0--0--0--0--0--|--3--3--3--3--3--3--------|


                                                      
--------------------------|--------------------------|
--------------------------|--------------------4--5--|
--------------------------|--------------------------|
--3--3--3--3--3--3--3--3--|--0--0--0--0--0--0--------|


                                                      
--------------------------|--------------------------|
--------------------------|--------------------4--5--|
--------------------------|--------------------------|
--0--0--0--0--0--0--0--0--|--3--3--3--3--3--3--------|


                                                      
--------------------------|--------------------------|
--------------------2--4--|--------4--5-----5-----4--|
--------------------------|--------------------------|
--2--2--2--2--2--2--------|--0--0--------0-----0-----|


                                                      
--------------------------|--------------------------|
--------4--5-----5-----4--|--------0--2-----2-----0--|
--------------------------|--------------------------|
--0--0--------0-----0-----|--3--3--------3-----3-----|


                                                      
--------------------------|--------------------------|
--------2--4-----4-----2--|--------4--5-----5-----4--|
--------------------------|--------------------------|
--2--2--------2-----2-----|--0--0--------0-----0-----|


                                                      
--------------------------|--------------------------|
--------4--5-----5-----4--|--------0--2-----2-----0--|
--------------------------|--------------------------|
--0--0--------0-----0-----|--3--3--------3-----3-----|


                                                      
--------------------------|--------------------------|
--------2--4-----4-----2--|--------5--5--4--4--------|
--------------------------|--------------------5--5--|
--2--2--------2-----2-----|--0--0--------------------|


                                                      
--------------------------|--------------------------|
--------------------------|--------5--5--4--4--7--7--|
--3--3--3--3--2--2--------|--------------------------|
--------------------3--2--|--0--0--------------------|


                                                      
--------------------------|--------------------------|
--------------------------|--------5--5--4--4--------|
--3--3--3--3--2--2--2--2--|--------------------5--5--|
--------------------------|--0--0--------------------|


                                                      
--------------------------|--------------------------|
--------------------------|--------5--5--4--4--7--7--|
--3--3--3--3--2--2--------|--------------------------|
--------------------3--2--|--0--0--------------------|


                                  
--------------------------|-----||
--------------------------|-----||
--3--3--3--3--2--2--2--2--|--3--||
--------------------------|-----||
            
Submit corrections

comments powered by Disqus
↑ Back to top | Arcane Sanctuary Bass for The Gates. Lyrics for acoustic guitar and electric guitar. 1 Tablatures and chords are parodies/interpretations of the original songs. You may use it for private study, scholarship, research or language learning purposes only