>
 >
Seeking The Enemy

Seeking The Enemy Bass Tabs

Arcane Sanctuary - Seeking The Enemy chords, tabs, tablatures, lyrics

Guitar lessons | Add/correct | Request | Top 50 tabs Artists:  A B C D E F G H I J K L M N O P Q R S T U V W X Y Z 0-9

Seeking The Enemy Bass Tabs – Arcane Sanctuary

CD, Sheet music, Poster

Do you like Seeking The Enemy? Share with your friends now
Bass Tabs
tune down

F||------|------|------|------|------|-------------------------|
C||------|------|------|------|------|-------------------------|
G||------|------|------|------|------|--8--7--5--7-----2--5----|
D||------|------|------|------|------|--------------0----------|


                                                                              
-------------------------|-------------------------|-------------------------|
-------------------------|-------------------------|-------------------------|
--------------------7----|--------8----8--7--5--7--|--------5----------------|
--0--0--0--0--0--5-------|--0--5-------------------|--0--5-------0--0--0--0--|


                                                                             
------------------------|-------------------------|-------------------------|
------------------------|-------------------------|-------------------------|
--------7---------------|--8--7--5--7--------5----|--------------------7----|
--0--5-------0--3--1----|--------------0--5-------|--0--0--0--0--0--5-------|


                                                                             
-------------------------|-------------------------|------------------------|
-------------------------|-------------------------|------------------------|
--------8----8--7--5--7--|--------5----------------|--------7---------------|
--0--5-------------------|--0--5-------0--0--0--0--|--0--5-------0--3--1----|


                                                                       
-----------------------|-----------------------|----------------------|
-----------------------|-----------------------|----------------------|
-----------------------|-----------------------|----------------------|
--0----0--0----0--0----|--0----0--0----0--0----|--1----0----1----0----|


                                                                       
-----------------------|-----------------------|----------------------|
-----------------------|-----------------------|----------------------|
-----------------------|-----------------------|----------------------|
--0----0--0----0--0----|--0----0--0----0--0----|--1----3----1----0----|


                                                                       
-----------------------|-----------------------|----------------------|
-----------------------|-----------------------|----------------------|
-----------------------|-----------------------|----------------------|
--0----0--0----0--0----|--0----0--0----0--0----|--1----0----1----0----|


                                                                            
-----------------------|-----------------------|--------------------|------|
-----------------------|-----------------------|--------------------|------|
-----------------------|-----------------------|--------------------|------|
--0----0--0----0--0----|--0----0--0----0--0----|--1----1------------|------|


                                                                           
------|------|------|--------------------------|--------------------------|
------|------|------|--------------------------|--------------------------|
------|------|------|--5--7--------5--7--------|--5--7-----8--7-----------|
------|------|------|--------0--0--------0--0--|--------0--------0--7--8--|


                                                      
--------------------------|--------------------------|
--------------------------|--------------------------|
--5--7--------5--7--------|--5--7-----3--2-----0--2--|
--------0--0--------0--0--|--------0--------0--------|


                                                      
--------------------------|--------------------------|
--------------------------|--------------------------|
--5--7--------5--7--------|--5--7-----8--7-----------|
--------0--0--------0--0--|--------0--------0--7--8--|


                                                      
--------------------------|--------------------------|
--------------------------|--------------------------|
--5--7--------5--7--------|--5--7-----3--2-----0--2--|
--------0--0--------0--0--|--------0--------0--------|


                                                      
--------------------------|--------------------------|
--------------------------|--------------------------|
--------------------------|-----8-----7--------------|
--0--0--0--0--0--0--0--0--|--6-----6-----0--0--0--0--|


                                                      
--------------------------|--------------------------|
--------------------------|--------------------------|
--------3-----2--------5--|--------------------------|
--0--0-----0-----0--3-----|--0--0--0--0--0--0--0--0--|


                                                      
--------------------------|--------------------------|
--------------------------|--------------------------|
-----8-----7--------------|--------3-----2--------5--|
--6-----6-----0--0--0--0--|--0--0-----0-----0--3-----|


                                                      
--------------------------|--------------------------|
--------------------------|--------------------------|
--5--7--------5--7--------|--5--7-----8--7-----------|
--------0--0--------0--0--|--------0--------0--7--8--|


                                                      
--------------------------|--------------------------|
--------------------------|--------------------------|
--5--7--------5--7--------|--5--7-----3--2-----0--2--|
--------0--0--------0--0--|--------0--------0--------|


                                                      
--------------------------|--------------------------|
--------------------------|--------------------------|
--5--7--------5--7--------|--5--7-----8--7-----------|
--------0--0--------0--0--|--------0--------0--7--8--|


                                                                              
--------------------------|--------------------------|-----------------------|
--------------------------|--------------------------|-----------------------|
--5--7--------5--7--------|--5--7-----3--2-----0--2--|-----------------------|
--------0--0--------0--0--|--------0--------0--------|--0----0--0----0--0----|


                                                                       
-----------------------|----------------------|-----------------------|
-----------------------|----------------------|-----------------------|
-----------------------|----------------------|-----------------------|
--0----0--0----0--0----|--1----0----1----0----|--0----0--0----0--0----|


                                                                       
-----------------------|----------------------|-----------------------|
-----------------------|----------------------|-----------------------|
-----------------------|----------------------|-----------------------|
--0----0--0----0--0----|--1----3----1----0----|--0----0--0----0--0----|


                                                                       
-----------------------|----------------------|-----------------------|
-----------------------|----------------------|-----------------------|
-----------------------|----------------------|-----------------------|
--0----0--0----0--0----|--1----0----1----0----|--0----0--0----0--0----|


                                                                        
-----------------------|--------------------|--------------------------|
-----------------------|--------------------|--------------------------|
-----------------------|--------------------|--5--7--------5--7--------|
--0----0--0----0--0----|--1----1------------|--------0--0--------0--0--|


                                                      
--------------------------|--------------------------|
--------------------------|--------------------------|
--5--7-----8--7-----------|--5--7--------5--7--------|
--------0--------0--7--8--|--------0--0--------0--0--|


                                                      
--------------------------|--------------------------|
--------------------------|--------------------------|
--5--7-----3--2-----0--2--|--5--7--------5--7--------|
--------0--------0--------|--------0--0--------0--0--|


                                                      
--------------------------|--------------------------|
--------------------------|--------------------------|
--5--7-----8--7-----------|--5--7--------5--7--------|
--------0--------0--7--8--|--------0--0--------0--0--|


                                                      
--------------------------|--------------------------|
--------------------------|--------------------------|
--5--7-----3--2-----0--2--|--------------------------|
--------0--------0--------|--0--0--0--0--0--0--0--0--|


                                                      
--------------------------|--------------------------|
--------------------------|--------------------------|
-----8-----7--------------|--------3-----2--------5--|
--6-----6-----0--0--0--0--|--0--0-----0-----0--3-----|


                                                      
--------------------------|--------------------------|
--------------------------|--------------------------|
--------------------------|-----8-----7--------------|
--0--0--0--0--0--0--0--0--|--6-----6-----0--0--0--0--|


                                                      
--------------------------|--------------------------|
--------------------------|--------------------------|
--------3-----2--------5--|--5--7--------5--7--------|
--0--0-----0-----0--3-----|--------0--0--------0--0--|


                                                      
--------------------------|--------------------------|
--------------------------|--------------------------|
--5--7-----8--7-----------|--5--7--------5--7--------|
--------0--------0--7--8--|--------0--0--------0--0--|


                                                      
--------------------------|--------------------------|
--------------------------|--------------------------|
--5--7-----3--2-----0--2--|--5--7--------5--7--------|
--------0--------0--------|--------0--0--------0--0--|


                                                      
--------------------------|--------------------------|
--------------------------|--------------------------|
--5--7-----8--7-----------|--5--7--------5--7--------|
--------0--------0--7--8--|--------0--0--------0--0--|


                                                                           
--------------------------|-----------------------|-----------------------|
--------------------------|-----------------------|-----------------------|
--5--7-----3--2-----0--2--|-----------------------|-----------------------|
--------0--------0--------|--0----0--0----0--0----|--0----0--0----0--0----|


                                                                       
----------------------|-----------------------|-----------------------|
----------------------|-----------------------|-----------------------|
----------------------|-----------------------|-----------------------|
--1----0----1----0----|--0----0--0----0--0----|--0----0--0----0--0----|


                                                                       
----------------------|-----------------------|-----------------------|
----------------------|-----------------------|-----------------------|
----------------------|-----------------------|-----------------------|
--1----3----1----0----|--0----0--0----0--0----|--0----0--0----0--0----|


                                                                       
----------------------|-----------------------|-----------------------|
----------------------|-----------------------|-----------------------|
----------------------|-----------------------|-----------------------|
--1----0----1----0----|--0----0--0----0--0----|--0----0--0----0--0----|


                                                               
--------------------|--------------------|--------------------|
--------------------|--------------------|--------------------|
--------------------|--------------------|--------------------|
--1----1------------|--0--0--0--0--0--0--|--0--0--0--0--0--0--|


                                                               
--------------------|--------------------|--------------------|
--------------------|--------------------|--------------------|
--------------------|--------------------|--5-----------3-----|
--0--0--0--0--0--0--|--0--0--0--0--0--0--|-----3--0--1-----1--|


                                                               
--------------------|--------------------|--------------------|
--------------------|--------------------|--------------------|
--------------------|--------------------|--7-----------5-----|
--0--0--0--0--0--0--|--0--0--0--0--0--0--|-----5--0--3-----3--|


                                                               
--------------------|--------------------|--------------------|
--------------------|--------------------|--------------------|
--------------------|--------------------|--5-----------3-----|
--0--0--0--0--0--0--|--0--0--0--0--0--0--|-----3--0--1-----1--|


                                                               
--------------------|--------------------|--------------------|
--------------------|--------------------|--------------------|
--------------------|--------------------|--7-----------5-----|
--0--0--0--0--0--0--|--0--0--0--0--0--0--|-----5--0--3-----3--|


                                                               
--------------------|--------------------|--------------------|
--------------------|--------------------|--------------------|
--------------------|--------------------|--5-----------3-----|
--0--0--0--0--0--0--|--0--0--0--0--0--0--|-----3--0--1-----1--|


                                                               
--------------------|--------------------|--------------------|
--------------------|--------------------|--------------------|
--------------------|--------------------|--7-----------5-----|
--0--0--0--0--0--0--|--0--0--0--0--0--0--|-----5--0--3-----3--|


                                                               
--------------------|--------------------|--------------------|
--------------------|--------------------|--------------------|
--------------------|--------------------|--5-----------3-----|
--0--0--0--0--0--0--|--0--0--0--0--0--0--|-----3--0--1-----1--|


                                                               
--------------------|--------------------|--------------------|
--------------------|--------------------|--------------------|
--------------------|--------------------|--7-----------5-----|
--0--0--0--0--0--0--|--0--0--0--0--0--0--|-----5--0--3-----3--|


                                                               
--------------------|--------------------|--------------------|
--------------------|--------------------|--------------------|
--------------------|--------------------|--5-----------3-----|
--0--0--0--0--0--0--|--0--0--0--0--0--0--|-----3--0--1-----1--|


                                                               
--------------------|--------------------|--------------------|
--------------------|--------------------|--------------------|
--------------------|--------------------|--7-----------5-----|
--0--0--0--0--0--0--|--0--0--0--0--0--0--|-----5--0--3-----3--|


                                                               
--------------------|--------------------|--------------------|
--------------------|--------------------|--------------------|
--------------------|--------------------|--5-----------3-----|
--0--0--0--0--0--0--|--0--0--0--0--0--0--|-----3--0--1-----1--|


                                                               
--------------------|--------------------|--------------------|
--------------------|--------------------|--------------------|
--------------------|--------------------|--7-----------5-----|
--0--0--0--0--0--0--|--0--0--0--0--0--0--|-----5--0--3-----3--|


                                                               
--------------------|--------------------|--------------------|
--------------------|--------------------|--------------------|
--------------------|--------------------|--5-----------3-----|
--0--0--0--0--0--0--|--0--0--0--0--0--0--|-----3--0--1-----1--|


                                                               
--------------------|--------------------|--------------------|
--------------------|--------------------|--------------------|
--------------------|--------------------|--7-----------5-----|
--0--0--0--0--0--0--|--0--0--0--0--0--0--|-----5--0--3-----3--|


                                                               
--------------------|--------------------|--------------------|
--------------------|--------------------|--------------------|
--------------------|--------------------|--5-----------3-----|
--0--0--0--0--0--0--|--0--0--0--0--0--0--|-----3--0--1-----1--|


                                                               
--------------------|--------------------|--------------------|
--------------------|--------------------|--------------------|
--------------------|--------------------|--7-----------5-----|
--0--0--0--0--0--0--|--0--0--0--0--0--0--|-----5--0--3-----3--|


                                                               
--------------------|--------------------|--------------------|
--------------------|--------------------|--------------------|
--------------------|--------------------|--5-----------3-----|
--0--0--0--0--0--0--|--0--0--0--0--0--0--|-----3--0--1-----1--|


                                                                                
--------------------|--------------------|--------------------|----------------|
--------------------|--------------------|--------------------|----------------|
--------------------|--------------------|--7-----------5-----|----------------|
--0--0--0--0--0--0--|--0--0--0--0--0--0--|-----5--0--3-----3--|--0--0----------|


                                                      
--------------------------|--------------------------|
--------------------------|--------------------------|
--5--7--------5--7--------|--5--7-----8--7-----------|
--------0--0--------0--0--|--------0--------0--7--8--|


                                                      
--------------------------|--------------------------|
--------------------------|--------------------------|
--5--7--------5--7--------|--5--7-----3--2-----0--2--|
--------0--0--------0--0--|--------0--------0--------|


                                                      
--------------------------|--------------------------|
--------------------------|--------------------------|
--5--7--------5--7--------|--5--7-----8--7-----------|
--------0--0--------0--0--|--------0--------0--7--8--|


                                                      
--------------------------|--------------------------|
--------------------------|--------------------------|
--5--7--------5--7--------|--5--7-----3--2-----0--2--|
--------0--0--------0--0--|--------0--------0--------|


                                                      
--------------------------|--------------------------|
--------------------------|--------------------------|
--------------------------|-----8-----7--------------|
--0--0--0--0--0--0--0--0--|--6-----6-----0--0--0--0--|


                                                      
--------------------------|--------------------------|
--------------------------|--------------------------|
--------3-----2--------5--|--------------------------|
--0--0-----0-----0--3-----|--0--0--0--0--0--0--0--0--|


                                                      
--------------------------|--------------------------|
--------------------------|--------------------------|
-----8-----7--------------|--------3-----2--------5--|
--6-----6-----0--0--0--0--|--0--0-----0-----0--3-----|


                                                      
--------------------------|--------------------------|
--------------------------|--------------------------|
--5--7--------5--7--------|--5--7-----8--7-----------|
--------0--0--------0--0--|--------0--------0--7--8--|


                                                      
--------------------------|--------------------------|
--------------------------|--------------------------|
--5--7--------5--7--------|--5--7-----3--2-----0--2--|
--------0--0--------0--0--|--------0--------0--------|


                                                      
--------------------------|--------------------------|
--------------------------|--------------------------|
--5--7--------5--7--------|--5--7-----8--7-----------|
--------0--0--------0--0--|--------0--------0--7--8--|


                                                                              
--------------------------|--------------------------|-----------------------|
--------------------------|--------------------------|-----------------------|
--5--7--------5--7--------|--5--7-----3--2-----0--2--|-----------------------|
--------0--0--------0--0--|--------0--------0--------|--0----0--0----0--0----|


                                                                       
-----------------------|----------------------|-----------------------|
-----------------------|----------------------|-----------------------|
-----------------------|----------------------|-----------------------|
--0----0--0----0--0----|--1----0----1----0----|--0----0--0----0--0----|


                                                                       
-----------------------|----------------------|-----------------------|
-----------------------|----------------------|-----------------------|
-----------------------|----------------------|-----------------------|
--0----0--0----0--0----|--1----3----1----0----|--0----0--0----0--0----|


                                                                       
-----------------------|----------------------|-----------------------|
-----------------------|----------------------|-----------------------|
-----------------------|----------------------|-----------------------|
--0----0--0----0--0----|--1----0----1----0----|--0----0--0----0--0----|


                                              
-----------------------|--------------------||
-----------------------|--------------------||
-----------------------|--------------------||
--0----0--0----0--0----|--1----1------------||





Comments


Popular Arcane Sanctuary tabs & chords
Blade Of The Old Religion Bass Tabs
Magnum Bass Tabs
Rise Up The Death Bass Tabs
The Gates Bass Tabs


Song lyrics



↑ Back to top | Tablatures and chords are parodies/interpretations of the original songs. You may use it for private study, scholarship, research or language learning purposes only
© 2014 AZChords.com Contact us | Privacy policy | DMCA | Add/correct tabs | Request tabs | Top 50 tabs