>
 >
Rise Up The Death

Rise Up The Death Bass Tabs

Arcane Sanctuary - Rise Up The Death chords, tabs, tablatures, lyrics

Guitar lessons | Add/correct | Request | Top 50 tabs Artists:  A B C D E F G H I J K L M N O P Q R S T U V W X Y Z 0-9

Rise Up The Death Bass Tabs – Arcane Sanctuary

CD, Sheet music, Poster

Do you like Rise Up The Death? Share with your friends now
Bass Tabs
tune down

F||----------------------|----------------------------||
C||*---------------------|---------------------------*||
G||*----------------2----|----1----------------------*||
D||---0------1-----------|-------------0--1--1--1-----||


                                                                
---------------------------|------------------------|---------||
*--------------------------|------------------------|--------*||
*--------------------2--2--|--2--1------------------|--------*||
---0--0--0--1--1--1--------|--------------0-0-1--1--|--1--3---||


                                                       
---------------------------|--------------------------|
*--------------------------|--3--3--2--2--------------|
*--------------2--2--1--1--|--------------3--3--5--5--|
---0--0--1--1--------------|--------------------------|


                                                      
--------------------------|-------------------------||
--------------------------|------------------------*||
--------------2--2--1--1--|--------5----------4----*||
--0--0--1--1--------------|--3--3-------2--2--------||


                                                      
---------------------------|-------------------------|
*--------------------------|-------------------------|
*--------------2-----1-----|--------------2-----1----|
---0--0--1--0-----1-----1--|--0--0--1--0-----1-------|


                                                                     
--------------------------|-------------------------|--------------||
--------------------------|-------------------------|-------------*||
--------------2-----1-----|--------------------5----|--------4----*||
--0--0--1--0-----1-----1--|--0--0--1--0--3--3-------|--2--2--------||


                                                       
---------------------------|--------------------------|
*--------------------------|--3--3--2--2--------------|
*--------------2--2--1--1--|--------------3--3--5--5--|
---0--0--1--1--------------|--------------------------|


                                                      
--------------------------|-------------------------||
--------------------------|------------------------*||
--------------2--2--1--1--|--------5----------4----*||
--0--0--1--1--------------|--3--3-------2--2--------||


                                                      
---------------------------|-------------------------|
*--------------------------|-------------------------|
*--------------2-----1-----|--------------2-----1----|
---0--0--1--0-----1-----1--|--0--0--1--0-----1-------|


                                                                     
--------------------------|-------------------------|--------------||
--------------------------|-------------------------|-------------*||
--------------2-----1-----|--------------------5----|--------4----*||
--0--0--1--0-----1-----1--|--0--0--1--0--3--3-------|--2--2--------||


                                                    
--------------------|------------------------------|
*-------------------|------------------------------|
*-------------------|------------------------------|
---0----------------|--1--1--1----0----------------|


                                                                           
------------------------------|--------------||---------------------------|
------------------------------|-------------*||*--------------------------|
--2--2--2----1----------------|-------------*||*--------------------------|
------------------------------|--1--1--1-----||---0--0--1--0--1--0--0--1--|


                                                                             
--------------------------|--------------------------|---------------------||
--------------------------|--------------------------|--------------------*||
--------------2--1--------|--------------------------|--6--0--4--------5--*||
--0--0--1--0--------0--0--|--1--0--1--0--0--1--0--0--|-----------5--3------||


                                                            
------------------|--------------------|-------------------|
*-----------------|--4-----------------|-------------------|
*-----------5--6--|-----6----5--6-5-3--|--1--3-1-----------|
---0--------------|--------------------|---------1----0----|


                                                                                
--------------------|-------------------|---------||---------------------------|
--------------------|-------------------|--------*||*--------------------------|
--6-----4--------5--|-------6-----4-----|-----5--*||*-----------------------2--|
-----0-----5--3-----|--0-------0-----5--|--3------||---0--0--0--0--0--0--0-----|


                                                                          
-------------------------|-------------------------|--------------------||
-------------------------|-------------------------|-------------------*||
----1--------------------|----------------------2--|----1--------------*||
-------0--0--0--0--0--1--|----3--0--0--0--0--0-----|---------1----3-----||


                                                            
------------------|--------------------|-------------------|
*-----------------|--4-----------------|-------------------|
*-----------5--6--|-----6----5--6-5-3--|--1--3-1-----------|
---0--------------|--------------------|---------1----0----|


                                                                                
--------------------|-------------------|---------||---------------------------|
--------------------|-------------------|--------*||*--------------------------|
--6-----4--------5--|-------6-----4-----|-----5--*||*-----------------------2--|
-----0-----5--3-----|--0-------0-----5--|--3------||---0--0--0--0--0--0--0-----|


                                                                          
-------------------------|-------------------------|--------------------||
-------------------------|-------------------------|-------------------*||
----1--------------------|----------------------2--|----1--------------*||
-------0--0--0--0--0--1--|----3--0--0--0--0--0-----|---------1----3-----||


                                                                            
-------------------||---------------------------|--------------------------|
-------------------||*--------------------------|--3--3--2--2--------------|
-------------------||*--------------2--2--1--1--|--------------3--3--5--5--|
--0----------------||---0--0--1--1--------------|--------------------------|


                                                        
--------------------------|---------------------------||
--------------------------|--------------------------*||
--------------2--2--1--1--|-----------5-----------4--*||
--0--0--1--1--------------|--3--3--3-----2--2--2------||


                                                      
---------------------------|-------------------------|
*--------------------------|-------------------------|
*--------------2-----1-----|--------------2-----1----|
---0--0--1--0-----1-----1--|--0--0--1--0-----1-------|


                                                                     
--------------------------|-------------------------|--------------||
--------------------------|-------------------------|-------------*||
--------------2-----1-----|--------------------5----|--------4----*||
--0--0--1--0-----1-----1--|--0--0--1--0--3--3-------|--2--2--------||


                                                       
---------------------------|--------------------------|
*--------------------------|--3--3--2--2--------------|
*--------------2--2--1--1--|--------------3--3--5--5--|
---0--0--1--1--------------|--------------------------|


                                                      
--------------------------|-------------------------||
--------------------------|------------------------*||
--------------2--2--1--1--|--------5----------4----*||
--0--0--1--1--------------|--3--3-------2--2--------||


                                                      
---------------------------|-------------------------|
*--------------------------|-------------------------|
*--------------2-----1-----|--------------2-----1----|
---0--0--1--0-----1-----1--|--0--0--1--0-----1-------|


                                                                     
--------------------------|-------------------------|--------------||
--------------------------|-------------------------|-------------*||
--------------2-----1-----|--------------------5----|--------4----*||
--0--0--1--0-----1-----1--|--0--0--1--0--3--3-------|--2--2--------||


                                                    
--------------------|------------------------------|
*-------------------|------------------------------|
*-------------------|------------------------------|
---0----------------|--1--1--1----0----------------|


                                                                           
------------------------------|--------------||---------------------------|
------------------------------|-------------*||*--------------------------|
--2--2--2----1----------------|-------------*||*--------------------------|
------------------------------|--1--1--1-----||---0--0--1--0--1--0--0--1--|


                                                                             
--------------------------|--------------------------|---------------------||
--------------------------|--------------------------|--------------------*||
--------------2--1--------|--------------------------|--6--0--4--------5--*||
--0--0--1--0--------0--0--|--1--0--1--0--0--1--0--0--|-----------5--3------||


                                                                          
----|----|----|----|--------------------------|--------------------------|
----|----|----|----|--------------------------|--------------------------|
----|----|----|----|--6--0--4--0--------0--5--|--6--0--4--0-----3-----2--|
----|----|----|----|--------------0--3--------|--------------3-----2-----|


                                                        
|---------------------------|--------------------------|
|*--------------------------|--------------------------|
|*--6--0--4--0--------0--5--|--6--0--4--0-----3-----2--|
|---------------0--3--------|--------------3-----2-----|


                                                        
--------------------------|---------------------------||
--------------------------|--------------------------*||
--6--0--4--0--------0--5--|--6--0--4--0-----3-----2--*||
--------------0--3--------|--------------3-----2------||


                                                      
--------------------------|--------------------------|
--------------------------|--------------------------|
--6--0--4--0--------0--5--|--6--0--4--0-----3-----2--|
--------------0--3--------|--------------3-----2-----|


                                                      
--------------------------|--------------------------|
--------------------------|--------------------------|
--6--0--4--0--------0--5--|--6--0--4--0-----3-----2--|
--------------0--3--------|--------------3-----2-----|


                                                      
--------------------------|--------------------------|
--------------------------|--------------------------|
--6--0--4--0--------0--5--|--6--0--4--0-----3-----2--|
--------------0--3--------|--------------3-----2-----|


                                                      
--------------------------|--------------------------|
--------------------------|--------------------------|
--6--0--4--0--------0--5--|--6--0--4--0-----3-----2--|
--------------0--3--------|--------------3-----2-----|


                                                      
--------------------------|--------------------------|
--------------------------|--------------------------|
--6--0--4--0--------0--5--|--6--0--4--0-----3-----2--|
--------------0--3--------|--------------3-----2-----|


                                                       
--------------------------|--------------------------||
--------------------------|--------------------------||
--6--0--4--0--------0--5--|--6--0--4--0-----3-----2--||
--------------0--3--------|--------------3-----2-----||





Comments


Popular Arcane Sanctuary tabs & chords
Blade Of The Old Religion Bass Tabs
Magnum Bass Tabs
Seeking The Enemy Bass Tabs
The Gates Bass Tabs


Song lyrics



↑ Back to top | Tablatures and chords are parodies/interpretations of the original songs. You may use it for private study, scholarship, research or language learning purposes only
© 2014 AZChords.com Contact us | Privacy policy | DMCA | Add/correct tabs | Request tabs | Top 50 tabs