>
 >
Magnum

Magnum Bass Tabs

Arcane Sanctuary - Magnum chords, tabs, tablatures, lyrics

Guitar lessons | Add/correct | Request | Top 50 tabs Artists:  A B C D E F G H I J K L M N O P Q R S T U V W X Y Z 0-9

Magnum Bass Tabs – Arcane Sanctuary

CD, Sheet music, Poster

Do you like Magnum? Share with your friends now
Bass Tabs
tune down
                                                                               
F||------------------------------------|--------------------------------------|
C||------------------------------------|--------------------------------------|
G||--10-----9-------------12-10--9-7-9-|--10-----9-------------14-12--10-9-10-|
D||-----0-0---0-0-7-0-8-0--------------|-----0-0---0-0-7-0-8-0----------------|


                                                                            
------------------------------------|--------------------------------------|
------------------------------------|--------------------------------------|
--10-----9-------------12-10--9-7-9-|--10-----9-------------14-12--10-9-10-|
-----0-0---0-0-7-0-8-0--------------|-----0-0---0-0-7-0-8-0----------------|


                                                                            
------------------------------------|--------------------------------------|
------------------------------------|--------------------------------------|
--10-----9-------------12-10--9-7-9-|--10-----9-------------14-12--10-9-10-|
-----0-0---0-0-7-0-8-0--------------|-----0-0---0-0-7-0-8-0----------------|


                                                                             
--------------------------|-----------------------|-------------------------|
--------------------------|-----------------------|-------------------------|
--------------------------|-----------------------|-------------------------|
--0---0---0---1-0-1-0---0-|----0---1---0---0---0--|---1-0-1-0---0---7---8---|


                                                                             
--------------------------|-----------------------|-------------------------|
--------------------------|-----------------------|-------------------------|
--------------------------|-----------------------|-------------------------|
--0---0---0---1-0-1-0---0-|----0---1---0---0---0--|---1-0-1-0---0---7---8---|


                                                              
------------------------------|------------------------------|
------------------------------|------------------------------|
------------------------------|------------------------------|
--0-0-0-----0-0-0-0-0-0-------|--3-3-3-----3-3-3-3-3-3-------|


                                                                  
------------------------------|----------------------------------|
------------------------------|----------------------------------|
------------------------------|----------------------------------|
--0-0-0-----0-0-0-0-0-0-------|--5-5-5-----5-5-5-5-5-5--0-5-3-2--|


                                                              
------------------------------|------------------------------|
------------------------------|------------------------------|
------------------------------|------------------------------|
--0-0-0-----0-0-0-0-0-0-------|--3-3-3-----3-3-3-3-3-3-------|


                                                                  
------------------------------|----------------------------------|
------------------------------|----------------------------------|
------------------------------|----------------------------------|
--0-0-0-----0-0-0-0-0-0-------|--5-5-5-----5-5-5-5-5-5--0-5-3-2--|


                                       
--------------------------------------|
--------------------------------------|
--10---10-------9---9-------10---10---|
-----0----0-0-0---0---0-0-0----8----8-|


                                           
------------------------------------------|
------------------------------------------|
------9---9-------12----12----------10----|
--8-8---8---8-8-8----10----10-10-10----10-|


                                           
------------------------------------------|
--------------9---------------------------|
--10--------------12---10---12---10---9---|
-----10-10-10---7----7----7----7----7---7-|


                                       
--------------------------------------|
--------------------------------------|
--10---10-------9---9-------10---10---|
-----0----0-0-0---0---0-0-0----8----8-|


                                           
------------------------------------------|
------------------------------------------|
------9---9-------12----12----------10----|
--8-8---8---8-8-8----10----10-10-10----10-|


                                                                                
------------------------------------------|------------------------------------|
--------------9---------------------------|------------------------------------|
--10--------------12---10---12---10---9---|--10-----9-------------12-10--9-7-9-|
-----10-10-10---7----7----7----7----7---7-|-----0-0---0-0-7-0-8-0--------------|


                                                                            
--------------------------------------|------------------------------------|
--------------------------------------|------------------------------------|
--10-----9-------------14-12--10-9-10-|--10-----9-------------12-10--9-7-9-|
-----0-0---0-0-7-0-8-0----------------|-----0-0---0-0-7-0-8-0--------------|


                                                                          
--------------------------------------|----------------------------------|
--------------------------------------|----------------------------------|
--10-----9-------------14-12--10-9-10-|----------------------------------|
-----0-0---0-0-7-0-8-0----------------|--0-0-0-0-0-0-0-0-0-1-0-1-0-0-0-0-|


                                                                    
--------------------------------|----------------------------------|
--------------------------------|----------------------------------|
--------------------------------|----------------------------------|
--0-0-0-0-0-1---0-0-0-0-0-0-0-0-|--0-1-0-1-0-0-0-0-0-0-7-0-0-8-0-0-|


                                                                    
----------------------------------|--------------------------------|
----------------------------------|--------------------------------|
----------------------------------|--------------------------------|
--0-0-0-0-0-0-0-0-0-1-0-1-0-0-0-0-|--0-0-0-0-0-1---0-0-0-0-0-0-0-0-|


                                                                  
----------------------------------|------------------------------|
----------------------------------|------------------------------|
----------------------------------|------------------------------|
--0-1-0-1-0-0-0-0-0-0-7-0-0-8-0-0-|--0-0-0-----0-0-0-0-0-0-------|


                                                              
------------------------------|------------------------------|
------------------------------|------------------------------|
------------------------------|------------------------------|
--3-3-3-----3-3-3-3-3-3-------|--0-0-0-----0-0-0-0-0-0-------|


                                                                  
----------------------------------|------------------------------|
----------------------------------|------------------------------|
----------------------------------|------------------------------|
--5-5-5-----5-5-5-5-5-5--0-5-3-2--|--0-0-0-----0-0-0-0-0-0-------|


                                                              
------------------------------|------------------------------|
------------------------------|------------------------------|
------------------------------|------------------------------|
--3-3-3-----3-3-3-3-3-3-------|--0-0-0-----0-0-0-0-0-0-------|


                                                                          
----------------------------------|--------------------------------------|
----------------------------------|--------------------------------------|
----------------------------------|--10---10-------9---9-------10---10---|
--5-5-5-----5-5-5-5-5-5--0-5-3-2--|-----0----0-0-0---0---0-0-0----8----8-|


                                           
------------------------------------------|
------------------------------------------|
------9---9-------12----12----------10----|
--8-8---8---8-8-8----10----10-10-10----10-|


                                           
------------------------------------------|
--------------9---------------------------|
--10--------------12---10---12---10---9---|
-----10-10-10---7----7----7----7----7---7-|


                                       
--------------------------------------|
--------------------------------------|
--10---10-------9---9-------10---10---|
-----0----0-0-0---0---0-0-0----8----8-|


                                           
------------------------------------------|
------------------------------------------|
------9---9-------12----12----------10----|
--8-8---8---8-8-8----10----10-10-10----10-|


                                                               
------------------------------------------|---|---|---|---|---|
--------------9---------------------------|---|---|---|---|---|
--10--------------12---10---12---10---9---|---|---|---|---|---|
-----10-10-10---7----7----7----7----7---7-|---|---|---|---|---|


                                                                        
-----------------------------------|-----------------------------------|
-----------------------------------|-----------------------------------|
--9-----7-----10-----7-----7-9-----|--9-----7-----10-----7-----7-9-----|
----0-0---0-0----0-0---0-0-----0-0-|----0-0---0-0----0-0---0-0-----0-0-|


                                                                      
----------------------------------|----------------------------------|
--7-----5-----8-----5-----5-7-----|--7-----5-----8-----5-----5-7-----|
----------------------------------|----------------------------------|
----3-3---3-3---3-3---3-3-----3-3-|----3-3---3-3---3-3---3-3-----3-3-|


                                                                        
-----------------------------------|-----------------------------------|
-----------------------------------|-----------------------------------|
--9-----7-----10-----7-----7-9-----|--9-----7-----10-----7-----7-9-----|
----0-0---0-0----0-0---0-0-----0-0-|----0-0---0-0----0-0---0-0-----0-0-|


                                                                      
----------------------------------|----------------------------------|
--7-----5-----8-----5-----5-7-----|--7-----5-----8-----5-----5-7-----|
----------------------------------|----------------------------------|
----3-3---3-3---3-3---3-3-----3-3-|----3-3---3-3---3-3---3-3-----3-3-|


                                                                        
-----------------------------------|-----------------------------------|
-----------------------------------|-----------------------------------|
--9-----7-----10-----7-----7-9-----|--9-----7-----10-----7-----7-9-----|
----0-0---0-0----0-0---0-0-----0-0-|----0-0---0-0----0-0---0-0-----0-0-|


                                                                      
----------------------------------|----------------------------------|
--7-----5-----8-----5-----5-7-----|--7-----5-----8-----5-----5-7-----|
----------------------------------|----------------------------------|
----3-3---3-3---3-3---3-3-----3-3-|----3-3---3-3---3-3---3-3-----3-3-|


                                                                        
-----------------------------------|-----------------------------------|
-----------------------------------|-----------------------------------|
--9-----7-----10-----7-----7-9-----|--9-----7-----10-----7-----7-9-----|
----0-0---0-0----0-0---0-0-----0-0-|----0-0---0-0----0-0---0-0-----0-0-|


                                                                      
----------------------------------|----------------------------------|
--7-----5-----8-----5-----5-7-----|--7-----5-----8-----5-----5-7-----|
----------------------------------|----------------------------------|
----3-3---3-3---3-3---3-3-----3-3-|----3-3---3-3---3-3---3-3-----3-3-|


                                                                        
-----------------------------------|-----------------------------------|
-----------------------------------|-----------------------------------|
--9-----7-----10-----7-----7-9-----|--9-----7-----10-----7-----7-9-----|
----0-0---0-0----0-0---0-0-----0-0-|----0-0---0-0----0-0---0-0-----0-0-|


                                                                      
----------------------------------|----------------------------------|
--7-----5-----8-----5-----5-7-----|--7-----5-----8-----5-----5-7-----|
----------------------------------|----------------------------------|
----3-3---3-3---3-3---3-3-----3-3-|----3-3---3-3---3-3---3-3-----3-3-|


                                                                        
-----------------------------------|-----------------------------------|
-----------------------------------|-----------------------------------|
--9-----7-----10-----7-----7-9-----|--9-----7-----10-----7-----7-9-----|
----0-0---0-0----0-0---0-0-----0-0-|----0-0---0-0----0-0---0-0-----0-0-|


                                                                      
----------------------------------|----------------------------------|
--7-----5-----8-----5-----5-7-----|--7-----5-----8-----5-----5-7-----|
----------------------------------|----------------------------------|
----3-3---3-3---3-3---3-3-----3-3-|----3-3---3-3---3-3---3-3-----3-3-|


                                       
--------------------------------------|
--------------------------------------|
--10---10-------9---9-------10---10---|
-----0----0-0-0---0---0-0-0----8----8-|


                                           
------------------------------------------|
------------------------------------------|
------9---9-------12----12----------10----|
--8-8---8---8-8-8----10----10-10-10----10-|


                                           
------------------------------------------|
--------------9---------------------------|
--10--------------12---10---12---10---9---|
-----10-10-10---7----7----7----7----7---7-|


                                       
--------------------------------------|
--------------------------------------|
--10---10-------9---9-------10---10---|
-----0----0-0-0---0---0-0-0----8----8-|


                                           
------------------------------------------|
------------------------------------------|
------9---9-------12----12----------10----|
--8-8---8---8-8-8----10----10-10-10----10-|


                                                                                
------------------------------------------|------------------------------------|
--------------9---------------------------|------------------------------------|
--10--------------12---10---12---10---9---|--10-----9-------------12-10--9-7-9-|
-----10-10-10---7----7----7----7----7---7-|-----0-0---0-0-7-0-8-0--------------|


                                                                            
--------------------------------------|------------------------------------|
--------------------------------------|------------------------------------|
--10-----9-------------14-12--10-9-10-|--10-----9-------------12-10--9-7-9-|
-----0-0---0-0-7-0-8-0----------------|-----0-0---0-0-7-0-8-0--------------|


                                                                          
--------------------------------------|----------------------------------|
--------------------------------------|----------------------------------|
--10-----9-------------14-12--10-9-10-|----------------------------------|
-----0-0---0-0-7-0-8-0----------------|--0-0-0-0-0-0-0-0-0-1-0-1-0-0-0-0-|


                                                                    
--------------------------------|----------------------------------|
--------------------------------|----------------------------------|
--------------------------------|----------------------------------|
--0-0-0-0-0-1---0-0-0-0-0-0-0-0-|--0-1-0-1-0-0-0-0-0-0-7-0-0-8-0-0-|


                                                                    
----------------------------------|--------------------------------|
----------------------------------|--------------------------------|
----------------------------------|--------------------------------|
--0-0-0-0-0-0-0-0-0-1-0-1-0-0-0-0-|--0-0-0-0-0-1---0-0-0-0-0-0-0-0-|


                                                                  
----------------------------------|------------------------------|
----------------------------------|------------------------------|
----------------------------------|------------------------------|
--0-1-0-1-0-0-0-0-0-0-7-0-0-8-0-0-|--0-0-0-----0-0-0-0-0-0-------|


                                                              
------------------------------|------------------------------|
------------------------------|------------------------------|
------------------------------|------------------------------|
--3-3-3-----3-3-3-3-3-3-------|--0-0-0-----0-0-0-0-0-0-------|


                                                                  
----------------------------------|------------------------------|
----------------------------------|------------------------------|
----------------------------------|------------------------------|
--5-5-5-----5-5-5-5-5-5--0-5-3-2--|--0-0-0-----0-0-0-0-0-0-------|


                                                              
------------------------------|------------------------------|
------------------------------|------------------------------|
------------------------------|------------------------------|
--3-3-3-----3-3-3-3-3-3-------|--0-0-0-----0-0-0-0-0-0-------|


                                                                          
----------------------------------|--------------------------------------|
----------------------------------|--------------------------------------|
----------------------------------|--10---10-------9---9-------10---10---|
--5-5-5-----5-5-5-5-5-5--0-5-3-2--|-----0----0-0-0---0---0-0-0----8----8-|


                                           
------------------------------------------|
------------------------------------------|
------9---9-------12----12----------10----|
--8-8---8---8-8-8----10----10-10-10----10-|


                                           
------------------------------------------|
--------------9---------------------------|
--10--------------12---10---12---10---9---|
-----10-10-10---7----7----7----7----7---7-|


                                       
--------------------------------------|
--------------------------------------|
--10---10-------9---9-------10---10---|
-----0----0-0-0---0---0-0-0----8----8-|


                                           
------------------------------------------|
------------------------------------------|
------9---9-------12----12----------10----|
--8-8---8---8-8-8----10----10-10-10----10-|


                                                                                
------------------------------------------|------------------------------------|
--------------9---------------------------|------------------------------------|
--10--------------12---10---12---10---9---|--10-----9-------------12-10--9-7-9-|
-----10-10-10---7----7----7----7----7---7-|-----0-0---0-0-7-0-8-0--------------|


                                                                            
--------------------------------------|------------------------------------|
--------------------------------------|------------------------------------|
--10-----9-------------14-12--10-9-10-|--10-----9-------------12-10--9-7-9-|
-----0-0---0-0-7-0-8-0----------------|-----0-0---0-0-7-0-8-0--------------|


                                                                          
--------------------------------------|----------------------------------|
--------------------------------------|----------------------------------|
--10-----9-------------14-12--10-9-10-|----------------------------------|
-----0-0---0-0-7-0-8-0----------------|--0-0-0-0-0-0-0-0-0-1-0-1-0-0-0-0-|


                                                                    
--------------------------------|----------------------------------|
--------------------------------|----------------------------------|
--------------------------------|----------------------------------|
--0-0-0-0-0-1---0-0-0-0-0-0-0-0-|--0-1-0-1-0-0-0-0-0-0-7-0-0-8-0-0-|


                                                                    
----------------------------------|--------------------------------|
----------------------------------|--------------------------------|
----------------------------------|--------------------------------|
--0-0-0-0-0-0-0-0-0-1-0-1-0-0-0-0-|--0-0-0-0-0-1---0-0-0-0-0-0-0-0-|


                                    
----------------------------------||
----------------------------------||
----------------------------------||
--0-1-0-1-0-0-0-0-0-0-7-0-0-8-0-0-||





Comments


Popular Arcane Sanctuary tabs & chords
Blade Of The Old Religion Bass Tabs
Rise Up The Death Bass Tabs
Seeking The Enemy Bass Tabs
The Gates Bass Tabs


Song lyrics



↑ Back to top | Tablatures and chords are parodies/interpretations of the original songs. You may use it for private study, scholarship, research or language learning purposes only
© 2014 AZChords.com Contact us | Privacy policy | DMCA | Add/correct tabs | Request tabs | Top 50 tabs