>
 >
Blade Of The Old Religion

Blade Of The Old Religion Bass Tabs

Arcane Sanctuary - Blade Of The Old Religion chords, tabs, tablatures, lyrics

Guitar lessons | Add/correct | Request | Top 50 tabs Artists:  A B C D E F G H I J K L M N O P Q R S T U V W X Y Z 0-9

Blade Of The Old Religion Bass Tabs – Arcane Sanctuary

CD, Sheet music, Poster

Do you like Blade Of The Old Religion? Share with your friends now
Bass Tabs
TUNE DOWN

C||------------------|-------------------|-------------------|
G||------------------|-------------------|-------------------|
D||------------------|-------------------|-------------------|
A||------------------|-------------------|-------------------|
E||------------------|----------------0/-|--5----------------|
B||------------------|-------------------|-------------------|


                                                                
---------------------|-------------------|---------------------|
---------------------|-------------------|---------------------|
---------------------|-------------------|---------------------|
--6----------2----3--|--0----------------|--6----------2----3--|
---------------------|-------------------|---------------------|
---------------------|-------------------|---------------------|


                                                                
---------------------|-------------------|---------------------|
---------------------|-------------------|---------------------|
---------------------|-------------------|---------------------|
--7------6------3----|--2----------------|--7------6------3----|
---------------------|-------------------|---------------------|
---------------------|-------------------|---------------------|


                                                                   
--------------------|----------------------|----------------------|
-----------2--------|---------2------------|---------2------------|
--------------------|----------------------|----------------------|
--0-----------------|--0-------------2--3--|--0-------------2--3--|
--------------------|----------------------|----------------------|
--------------------|----------------------|----------------------|


                                                                     
----------------------|----------------------|----------------------|
---------7------------|---------7------------|---------2------------|
----------------------|----------------------|----------------------|
--5-------------7--8--|--5-------------8--7--|--0-------------2--3--|
----------------------|----------------------|----------------------|
----------------------|----------------------|----------------------|


                                                                 
----------------------|--------------------|--------------------|
---------2------------|--------------------|--------------------|
----------------------|--------------------|---------------3----|
--0-------------2--3--|--------------------|--------------------|
----------------------|--1------------1----|--0-----------------|
----------------------|--------------------|--------------------|


                                                                
---------------------|-------------------|---------------------|
---------------------|-------------------|---------------------|
---------------------|-------------------|---------------------|
--7------6------3----|--2----------------|--7------6------3----|
---------------------|-------------------|---------------------|
---------------------|-------------------|---------------------|


                                                               
--------------------|-------------------|---------------------|
-----------2--------|-------------------|---------------------|
--------------------|-------------------|---------------------|
--0-----------------|--0----------------|--6----------2----3--|
--------------------|-------------------|---------------------|
--------------------|-------------------|---------------------|


                                                               
-------------------|---------------------|--------------------|
-------------------|---------------------|--------------------|
-------------------|---------------------|--4-----------------|
--0----------------|--6----------2----3--|--------------------|
-------------------|---------------------|-----------1--------|
-------------------|---------------------|--------------------|


                                                                      
--------------------|---------------------|--------------------------|
--------------------|---------------------|-------------5----4-------|
--------------------|------------------0/-|--2------2-2----2----2-0--|
--3-----------------|---------------------|--------------------------|
-----------0--------|--12-----------------|--------------------------|
--------------------|---------------------|--------------------------|


                                                       
---------------------------|-------------9----7----5--|
-------------7----5----5-7-|--5------5-5----5----5----|
--2------2-2----2----2-----|--------------------------|
---------------------------|--------------------------|
---------------------------|--------------------------|
---------------------------|--------------------------|


                                                       
-------------9----7----10--|--------------------------|
--5------5-5----5----5-----|-------------5----4-------|
---------------------------|--2------2-2----2----2-0--|
---------------------------|--------------------------|
---------------------------|--------------------------|
---------------------------|--------------------------|


                                                       
---------------------------|-------------9----7----5--|
-------------7----5----5-7-|--5------5-5----5----5----|
--2------2-2----2----2-----|--------------------------|
---------------------------|--------------------------|
---------------------------|--------------------------|
---------------------------|--------------------------|


                                                                   
-------------9----7----10--|-------------------|------------------|
--5------5-5----5----5-----|-------------------|------------------|
---------------------------|-------------------|------------------|
---------------------------|--0----------------|------------------|
---------------------------|-------------------|------------------|
---------------------------|-------------------|------------------|


                                                             
-------------------|-------------------|--------------------|
-------------------|-------------------|--------------------|
-------------------|-------------------|--------------------|
--7----------------|--6----------------|-----------------2--|
-------------------|-------------------|--5-----------------|
-------------------|-------------------|--------------------|


                                                               
---------------------|--------------------|-------------------|
---------------------|--------------------|-------------------|
---------------------|--------------------|-------------------|
--3------------5--7/-|--2-----------------|-------------------|
---------------------|---------------3----|--0----------------|
---------------------|--------------------|-------------------|


                                                                
--------------------|---------------------|--------------------|
--------------------|---------------------|--------------------|
--------------------|---------------------|--------------------|
--0--------------2--|--3------------5--7--|--2-----------------|
--------------------|---------------------|---------------3----|
--------------------|---------------------|--------------------|


                                                               
-------------------|--------------------|---------------------|
-------------------|--------------------|---------------------|
-------------------|--------------------|---------------------|
-------------------|-----------------2--|--3------------5--7/-|
--0----------------|--5-----------------|---------------------|
-------------------|--------------------|---------------------|


                                                              
--------------------|-------------------|--------------------|
--------------------|-------------------|--------------------|
--------------------|-------------------|--------------------|
--2-----------------|-------------------|--0--------------2--|
---------------3----|--0----------------|--------------------|
--------------------|-------------------|--------------------|


                                                               
---------------------|--------------------|-------------------|
---------------------|--------------------|-------------------|
---------------------|--------------------|-------------------|
--3------------5--7--|--2-----------------|-------------------|
---------------------|---------------3----|--0----------------|
---------------------|--------------------|-------------------|


                                                                
--------------------|---------------------|--------------------|
--------------------|---------------------|--------------------|
--------------------|---------------------|--------------------|
-----------------2--|--3------------5--7/-|--2-----------------|
--5-----------------|---------------------|---------------3----|
--------------------|---------------------|--------------------|


                                                               
-------------------|--------------------|---------------------|
-------------------|--------------------|---------------------|
-------------------|--------------------|---------------------|
-------------------|--0--------------2--|--3------------5--7--|
--0----------------|--------------------|---------------------|
-------------------|--------------------|---------------------|


                                          
--------------------|-------------------||
--------------------|-------------------||
--------------------|-------------------||
--2-----------------|-------------------||
---------------3----|--0----------------||
--------------------|-------------------||





Comments


Popular Arcane Sanctuary tabs & chords
Magnum Bass Tabs
Rise Up The Death Bass Tabs
Seeking The Enemy Bass Tabs
The Gates Bass Tabs


Song lyrics



↑ Back to top | Tablatures and chords are parodies/interpretations of the original songs. You may use it for private study, scholarship, research or language learning purposes only
© 2014 AZChords.com Contact us | Privacy policy | DMCA | Add/correct tabs | Request tabs | Top 50 tabs