» » »

Neighbourhood 4 7 Kettles Tabs (ver.1)

Artists:  A B C D E F G H I J K L M N O P Q R S T U V W X Y Z # 

Neighbourhood 4 7 Kettles Tabs (ver.1)

Arcade Fire
Rating:
0/5 (0 votes)

Hard to play? Try these video lessons and learn fast.
                a pedal and let it run for the duration while playing the second guitar part live)

e|---------------------------------------------------------------------------|
B|---------------------------------------------------------------------------|
G|---------7----7------------------------------------------------------------|
D|-0--4/5----5-----5---------------------------------------------------------|
A|---------------------------------------------------------------------------|
E|---------------------------------------------------------------------------|

Over the top of the riff the second guitar plays some notes in octaves during the verse:

e|--7-----------------------7-5-3----------3-5------------------7-5-3--------|
B|---------------------------------------------------------------------------|
G|---------------------------------------------------------------------------|
D|--9-----------------------9-7-5----------5-7------------------9-7-5--------|
A|---------------------------------------------------------------------------|
E|---------------------------------------------------------------------------|

The chorus goes like this:

e|---------0-----------0--0--------------3--------3--3-----------------------|
B|---------0-----------0--0--------------0--------0--0-----------------------|
G|---------0-----------0--0--------------0--------0--0-----------------------|
D|---------2-----------2--2--------------0--------0--0-----------------------|
A|---------3-----------3--3--------------2--------2--2-----------------------|
E|---------------------------------------3--------3--3-----------------------|

They say a watched pot        won't ever boil
Well I closed my eyes        and nothing changed

e|--------0-------0--0-----------0-------0--0-------------3------------------|
B|--------0-------0--0-----------2-------2--2-------------0------------------|
G|--------0-------0--0-----------2-------2--2-------------0------------------|
D|--------2-------2--2-----------2-------2--2-------------0------------------|
A|--------2-------2--2-----------0-------0--0-------------2------------------|
E|--------0-------0--0------------------------------------3------------------|

Just some water          getting hotter            in the flames
            
Hard to play? Try these video lessons and learn fast. | Correct




comments powered by Disqus
↑ Back to top | Tablatures and chords are parodies/interpretations of the original songs. You may use it for private study, scholarship, research or language learning purposes only