» » »

My Heart Is An Apple Bass tabs (ver.1)

Artists:  A B C D E F G H I J K L M N O P Q R S T U V W X Y Z # 

My Heart Is An Apple Bass tabs (ver.1)

Arcade Fire
Rating:
0/5 (0 votes)

Hard to play? Try these video lessons and learn fast.
                -------------------------------------------------------------------------------
			     My Heart Is An Apple - The Arcade Fire
-------------------------------------------------------------------------------


Tuning: G D A E

Verse 1:
G|-------------------------------------------------------------------|
D|-------------------------------------------------------------------|
A|---------------------------------------7-7--------------7-7--------|
E|-6--6-6--6--6-6--6--6-6--6--6-6----5-5-----6--6-6---5-5-----6--6-6-|

G|---------------------------------------------------------------------------|
D|---------------------------------------------------------------------------|
A|---------------------------------------7-7--------------7-7---------5-5-7-7|
E|-6--6-6--6--6-6--6--6-6--6--6-6----5-5-----6--6-6---5-5-----6-6-8-8--------|

Chorus 1:
G|------------------------------------|
D|------------------------------------|
A|-8-8-8-8--8-8-8-8--8-8-8-8--8-8-8-8-|
E|------------------------------------|

G|---------------------------------------------------|
D|---------------------------------------------------|
A|10-10-10-10--10-10-10-10--10-10-10-10--10-10-10-10-|
E|---------------------------------------------------|

G|------------------------------------|
D|------------------------------------|
A|-8-8-8-8--8-8-8-8--8-8-8-8--8-8-8-8-|
E|------------------------------------|

G|---------------------------------------------|
D|---------------------------------------------|
A|10-10-10-10--10-10-10\--------7-7--------7-7-|
E|--------------------------5--8-------5--8----|

Verse 2:
G|-------------------------------------------------------------------|
D|-------------------------------------------------------------------|
A|---------------------------------------7-7--------------7-7--------|
E|-6--6-6--6--6-6--6--6-6--6--6-6----5-5-----6--6-6---5-5-----6--6-6-|

G|---------------------------------------------------------------------------|
D|---------------------------------------------------------------------------|
A|---------------------------------------7-7--------------7-7---------5-5-7-7|
E|-6--6-6--6--6-6--6--6-6--6--6-6----5-5-----6--6-6---5-5-----6-6-8-8--------|


Chorus 2:
G|------------------------------------|
D|------------------------------------|
A|-8-8-8-8--8-8-8-8--8-8-8-8--8-8-8-8-|
E|------------------------------------|

G|---------------------------------------------------|
D|---------------------------------------------------|
A|10-10-10-10--10-10-10-10--10-10-10-10--10-10-10-10-|
E|---------------------------------------------------|

G|------------------------------------|
D|------------------------------------|
A|-8-8-8-8--8-8-8-8--8-8-8-8--8-8-8-8-|
E|------------------------------------|

G|---------------------------------------------|
D|---------------------------------------------|
A|10-10-10-10--10-10-10\--------7-7--------7-7-|
E|--------------------------5--8-------5--8----|

After Break(my heart is an aaappleeee...):
G|-------------------------------------------------------------------------|
D|-------------------------------------------------------------------------|
A|-8-8-8-8--8-8-8-8--8-8-8-8--8-8-8-8--8-8-8-8--8-8-8-8--8-8-8-8--8-8-8-8\-|
E|-------------------------------------------------------------------------|

G|-----------------------|
D|-----------------9--11-|
A|-7-7-7-7--8--11--------|
E|-----------------------|

G|-------------------------------------------------------------------------|
D|-------------------------------------------------------------------------|
A|-8-8-8-8--8-8-8-8--8-8-8-8--8-8-8-8--8-8-8-8--8-8-8-8--8-8-8-8--8-8-8-8\-|
E|-------------------------------------------------------------------------|

G|------------------------------------------------|
D|------------------------------------------------|
A|-7-7-7-7--8-8-8-8--8-8-8-8--7-7-7-7-------9--11-|
E|------------------------------------8--11-------|



| /  slide up
| \  slide down
| h  hammer-on
| p  pull-off
| ~  vibrato
| +  harmonic
| x  Mute note
==============================================================================
            
Hard to play? Try these video lessons and learn fast. | Correct




comments powered by Disqus
↑ Back to top | Tablatures and chords are parodies/interpretations of the original songs. You may use it for private study, scholarship, research or language learning purposes only