» » »

Another Little Hole Bass tabs (ver.1)

Artists:  A B C D E F G H I J K L M N O P Q R S T U V W X Y Z # 

Another Little Hole Bass tabs (ver.1)

Aqualung
Rating:
0/5 (0 votes)

Hard to play? Try these video lessons and learn fast.
                intro/most of song
G---------------------------------------------------------|
D---2-----2-----------2-------2---------------------------|
A-----2-------2---5-------2--------2----5-----------------|
E---------------------------------------------------------|
every once in awhile add
G-----------2------4---------------------------------|
D--------2-------------------------------------------|
A----5-----------------------------------------------|
E----------------------------------------------------|


chorus
G--------------------------------------------------------------|
D--------------------------------------------------------------|
A----5----2-----5-----3----------------------------------------|
E--------------------------5-----------------------------------|
            
Hard to play? Try these video lessons and learn fast. | Correct




comments powered by Disqus
↑ Back to top | Tablatures and chords are parodies/interpretations of the original songs. You may use it for private study, scholarship, research or language learning purposes only