» » »

To Fix The Gash In Your Head Tabs (ver.1)

Artists:  A B C D E F G H I J K L M N O P Q R S T U V W X Y Z # 

To Fix The Gash In Your Head Tabs (ver.1)

A Place To Bury Strangers
Rating:
0/5 (0 votes)

Tabs too difficult? Try these video lessons and learn fast.
                (Intro)
- To Fix The Gash In Your Head -

Tuning: Standard

This is my first released tab, so sorry if it's completely incorrect. 

It's most of what you need to play the song, 
but I've put it down as intro just in case I get around to tabbing the rest.

Played with heavy fuzz. 
Keep in mind that pretty much every note in the intro is held until the next one.
First, there's the synth drums, then the guitar just plays

E|--------|
B|--------|
G|--------|
D|-8------|
A|-8------|
E|-6------|

for a few bars. The synth plays the main melody, 
then the guitar comes in again, this time playing

E|-------------|--------------------|-------------------------|--------------------|
B|-------------|--------------------|-------------------------|--------------------|
G|-------------|--------------------|-----------8----6--------|--------------------|
D|-8------6----|------6----8--------|-----6---------------8---|-----------6--------|
A|-------------|-8------------------|-------------------------|----------------8---|
E|-------------|--------------------|-------------------------|--------------------|
                
                       
E|------------------------|----------------------|
B|------------------------|----------------------|
G|------------------------|----------------------|
D|------------------------|----------------8-----|
A|----------------8----6--|-----------6----8-----|
E|------6----9------------|------9---------6-----|

It's just a pentatonic riff in A#. 
That's pretty much all you need to play the song on guitar, I think it transposes up an octave 
or so later in the song, but I haven't worked it out yet. 
Questions, comments, corrections and the like can be posted in the comments or PMed to me. 
Thank you.

so long as my name remains on it. -
            
Tabs too difficult? Try these video lessons and learn fast.




comments powered by Disqus
↑ Back to top | Tablatures and chords are parodies/interpretations of the original songs. You may use it for private study, scholarship, research or language learning purposes only