>
 >
Weak And Powerless Tilling My Grave Mix 1

Weak And Powerless Tilling My Grave Mix 1 Guitar Tabs

A Perfect  Circle - Weak And Powerless Tilling My Grave Mix 1 chords, tabs, tablatures, lyrics

Guitar lessons | Add/correct | Request | Top 50 tabs Artists:  A B C D E F G H I J K L M N O P Q R S T U V W X Y Z 0-9

Weak And Powerless Tilling My Grave Mix 1 Guitar Tabs – A Perfect Circle

CD, Sheet music, Poster

Do you like Weak And Powerless Tilling My Grave Mix 1? Share with your friends now
Bass TabsTabsTabs v2
#------------------------------------------------------------------------------##


  Q=160
 3/4
  Gtr I
|------------|--------------|-------------|
|------------|--------------|-------------|
|------------|--------------|-------------|
|------------|--------------|-0-0--12\--0-|
|-----5------|--------------|-0-0--12\--0-|
|-3-----0--0-|-3-5-3-0-7p=0-|-0-0--12\--0-|
|
| Gtr II
|------------|--------------|-------------|
|------------|--------------|-------------|
|------------|--------------|-------------|
|-3--12-0--0-|-3-5-3-0-7\---|-0-0--12\--0-|
|-3--12-0--0-|-3-5-3-0-7\---|-0-0--12\--0-|
|-3--12-0--0-|-3-5-3-0-7\---|-0-0--12\--0-|


|-----------------|------------|----------------|
|-----------------|------------|----------------|
|-----------------|------------|----------------|
|-10-12-10-0-15\--|------------|----------------|
|-10-12-10-0-15\--|-----5------|----------------|
|-10-12-10-0-15\--|-3-----0--0-|-3-5-3-0-7p=0---|
|
|-----------------|------------|----------------|
|-----------------|------------|----------------|
|-----------------|------------|----------------|
|-10-12-10-0-15\--|-3--12-0--0-|-3-5-3-0-7\-----|
|-10-12-10-0-15\--|-3--12-0--0-|-3-5-3-0-7\-----|
|-10-12-10-0-15\--|-3--12-0--0-|-3-5-3-0-7\-----|


|-----------|-------------|------------|--------------|
|-----------|-------------|------------|--------------|
|-----------|-------------|------------|--------------|
|-1-1--1-1--|-1-1--0-13\--|------------|--------------|
|-1-1--1-1--|-1-1--0-13\--|-----5------|--------------|
|-1-1--1-1--|-1-1--0-13\--|-3-----0--0-|-3-5-3-0-7p=0-|
|
|-----------|-------------|------------|--------------|
|-----------|-------------|------------|--------------|
|-----------|-------------|------------|--------------|
|-1-1--1-1--|-1-1--0-13\--|-3--12-0--0-|-3-5-3-0-7\---|
|-1-1--1-1--|-1-1--0-13\--|-3--12-0--0-|-3-5-3-0-7\---|
|-1-1--1-1--|-1-1--0-13\--|-3--12-0--0-|-3-5-3-0-7\---|


|-------------|-----------------|------------|-----------------|
|-------------|-----------------|------------|-----------------|
|-------------|-----------------|------------|-----------------|
|-0-0--12\--0-|-10-12-10-0-15\--|------------|-----------------|
|-0-0--12\--0-|-10-12-10-0-15\--|-----5------|-----------------|
|-0-0--12\--0-|-10-12-10-0-15\--|-3-----0--0-|-3-5-3-0-7p=0----|
|
|-------------|-----------------|------------|-----------------|
|-------------|-----------------|------------|-----------------|
|-------------|-----------------|------------|-----------------|
|-0-0--12\--0-|-10-12-10-0-15\--|-3--12-0--0-|-3-5-3-0-7\------|
|-0-0--12\--0-|-10-12-10-0-15\--|-3--12-0--0-|-3-5-3-0-7\------|
|-0-0--12\--0-|-10-12-10-0-15\--|-3--12-0--0-|-3-5-3-0-7\------|


                            Q=160
                           6/4
                            PM---------------------------|           PM--|
|-----------|-------------|-------------------|-----------------------------|
|-----------|-------------|-------------------|-----------------------------|
|-----------|-------------|-------------------|-----------------------------|
|-1-1--1-1--|-1-1--0-13\--|-------------------|-----------------------------|
|-1-1--1-1--|-1-1--0-13\--|-------------------|-----------------------------|
|-1-1--1-1--|-1-1--0-13\--|-3---0--0-3---0--0-|-3---0--0-3-(3)b4r(3)r0-5p0--|
|
|                           PM---------------------------|           PM--|
|-----------|-------------|-------------------|-----------------------------|
|-----------|-------------|-------------------|-----------------------------|
|-----------|-------------|-------------------|-----------------------------|
|-1-1--1-1--|-1-1--0-13\--|-3---0--0-3---0--0-|-3---0--0-3-(3)b4-(3)r0-5-0--|
|-1-1--1-1--|-1-1--0-13\--|-3---0--0-3---0--0-|-3---0--0-3-(3)b4-(3)r0-5-0--|
|-1-1--1-1--|-1-1--0-13\--|-3---0--0-3---0--0-|-3---0--0-3-(3)b4r(3)r0-5-0--|


  PM---------------------------|           PM-----
|-------------------|----------------------------|
|-------------------|----------------------------|
|-------------------|----------------------------|
|-------------------|----------------------------|
|-------------------|----------------------------|
|-3---0--0-3---0--0-|-3---0--0-3-(3)b4-(3)r0-5p0-|
|
| PM---------------------------|           PM-----
|-------------------|----------------------------|
|-------------------|----------------------------|
|-------------------|----------------------------|
|-3---0--0-3---0--0-|-3---0--0-3-(3)b4-(3)r0-5-0-|
|-3---0--0-3---0--0-|-3---0--0-3-(3)b4-(3)r0-5-0-|
|-3---0--0-3---0--0-|-3---0--0-3-(3)b4r(3)r0-5-0-|


 ----------|           PM---------------|           PM
|----------------------------|-------------------------------|
|----------------------------|-------------------------------|
|----------------------------|-------------------------------|
|----------------------------|-------------------------------|
|----------------------------|-------------------------------|
|-3---0--0-3-(3)b4r(3)r0-5p0-|-3---0--0-3-(3)b4r(3)r0-5p0----|
|
|----------|           PM---------------|           PM--|
|----------------------------|-------------------------------|
|----------------------------|-------------------------------|
|----------------------------|-------------------------------|
|-3---0--0-3-(3)b4-(3)r0-5-0-|-3---0--0-3-(3)b4-(3)r0-5-0----|
|-3---0--0-3-(3)b4-(3)r0-5-0-|-3---0--0-3-(3)b4-(3)r0-5-0----|
|-3---0--0-3-(3)b4r(3)r0-5-0-|-3---0--0-3-(3)b4r(3)r0-5-0----|


  PM-------|           PM-------------|
|----------------------------|-----------------||-----------------------|
|----------------------------|-----------------||o----------------------|
|----------------------------|-----------------||-----------------------|
|----------------------------|-----------------||--5-5--5-5--5-5--5-5---|
|----------------------------|-----------------||o-5-5--5-5--5-5--5-5---|
|-3---0--0-3-(3)b4r(3)r0-5p0-|-3---0--0-0------||--5-5--5-5--5-5--5-5---|
|
| PM-------|           PM-------------|
|----------------------------|-----------------||-----------------------|
|----------------------------|-----------------||o----------------------|
|----------------------------|-----------------||-----------------------|
|-3---0--0-3-(3)b4-(3)r0-5-0-|-3---0--0-0------||--5-5--5-5--5-5--5-5---|
|-3---0--0-3-(3)b4-(3)r0-5-0-|-3---0--0-0------||o-5-5--5-5--5-5--5-5---|
|-3---0--0-3-(3)b4r(3)r0-5-0-|-3---0--0-0------||--5-5--5-5--5-5--5-5---|


  Gtrs I, II
|---------------------|-----------------------------|
|---------------------|-----------------------------|
|---------------------|-----------------------------|
|-3-3--3-3--3-3--3-3--|-12---12-12-12-12---12-12-12-|
|-3-3--3-3--3-3--3-3--|-12---12-12-12-12---12-12-12-|
|-3-3--3-3--3-3--3-3--|-12---12-12-12-12---12-12-12-|


|---------------------------------------||
|--------------------------------------o||
|---------------------------------------||
|-10-10-10-10-10-10-10-10-10-10-10-10---||
|-10-10-10-10-10-10-10-10-10-10-10-10--o||
|-10-10-10-10-10-10-10-10-10-10-10-10---||


    Gtr I
||-----------------------------------|---------------------------------||
||o------------------------------5p0-|--------------------------------o||
||---------------------------3h4-----|---------------------------------||
||-----------------------------------|------------------------0-10-12--||
||o---------------0-3----5-----------|--------------0-3---5---0-10-12-o||
||----0--0--0-3-5--------------------|--0--0--0-3-5-----------0-10-12--||
|
|   Gtr II
||-----------------------------------|---------------------------------||
||o----------------------------------|--------------------------------o||
||-----------------------------------|---------------------------------||
||--[10]--------------([10])---------|-[9]--------------([9])----------||
||o----------------------------------|--------------------------------o||
||-----------------------------------|---------------------------------||


  PM-------|           PM-----
|----------------------------|
|----------------------------|
|----------------------------|
|----------------------------|
|----------------------------|
|-3---0--0-3-(3)b4-(3)r0-5p0-|
|
| PM-------|           PM-----
|----------------------------|
|----------------------------|
|----------------------------|
|-3---0--0-3-(3)b4-(3)r0-5-0-|
|-3---0--0-3-(3)b4-(3)r0-5-0-|
|-3---0--0-3-(3)b4r(3)r0-5-0-|


 ----------|           PM---------------|           PM
|----------------------------|-----------------------------|
|----------------------------|-----------------------------|
|----------------------------|-----------------------------|
|----------------------------|-----------------------------|
|----------------------------|-----------------------------|
|-3---0--0-3-(3)b4r(3)r0-5p0-|-3---0--0-3-(3)b4r(3)r0-5p0--|
|
|----------|           PM---------------|           PM--|
|----------------------------|-----------------------------|
|----------------------------|-----------------------------|
|----------------------------|-----------------------------|
|-3---0--0-3-(3)b4-(3)r0-5-0-|-3---0--0-3-(3)b4-(3)r0-5-0--|
|-3---0--0-3-(3)b4-(3)r0-5-0-|-3---0--0-3-(3)b4-(3)r0-5-0--|
|-3---0--0-3-(3)b4r(3)r0-5-0-|-3---0--0-3-(3)b4r(3)r0-5-0--|


  PM-----|
|-----------------||----------------------|
|-----------------||o---------------------|
|-----------------||----------------------|
|-----------------||--5-5--5-5--5-5--5-5--|
|-----------------||o-5-5--5-5--5-5--5-5--|
|-3---0--0-0------||--5-5--5-5--5-5--5-5--|
|
| PM-----|
|-----------------||----------------------|
|-----------------||o---------------------|
|-----------------||----------------------|
|-3---0--0-0------||--5-5--5-5--5-5--5-5--|
|-3---0--0-0------||o-5-5--5-5--5-5--5-5--|
|-3---0--0-0------||--5-5--5-5--5-5--5-5--|


  Gtrs I, II
|---------------------|-----------------------------|
|---------------------|-----------------------------|
|---------------------|-----------------------------|
|-3-3--3-3--3-3--3-3--|-12---12-12-12-12---12-12-12-|
|-3-3--3-3--3-3--3-3--|-12---12-12-12-12---12-12-12-|
|-3-3--3-3--3-3--3-3--|-12---12-12-12-12---12-12-12-|


|---------------------------------------||
|--------------------------------------o||
|---------------------------------------||
|-10-10-10-10-10-10-10-10-10-10-10-10---||
|-10-10-10-10-10-10-10-10-10-10-10-10--o||
|-10-10-10-10-10-10-10-10-10-10-10-10---||


  Gtr I
|---------------------------|---------------------------|
|---------------------------|---------------------------|
|-9-9-9-5---5-4-----4-----4-|-/4----4---4---------------|
|---------------------------|-------------3-2-0----0--0-|
|---------------------------|---------------------------|
|---------------------------|---------------------------|
|
| Gtr II
|---------------------------|---------------------------|
|-----------------------5p0-|---------------------------|
|-------------------3h4-----|---------------------------|
|---------------------------|-------------------0-10-12-|
|-------------0-3-5---------|-------------0-3-5-0-10-12-|
|-0-0---0-3-5---------------|--0-0--0-3-5-------0-10-12-|


|------------------------------|----------------------------|
|-----8-----7-8-10-------------|----------------------------|
|-4h5--------------------------|----------------------------|
|------------------8-7-5-------|-2-2-2-3---3-5--------------|
|--------------------------8-5-|----------------------------|
|------------------------------|----------------------------|
|
|------------------------------|----------------------------|
|--------------------------5p0-|----------------------------|
|----------------------3h4-----|----------------------------|
|------------------------------|-------------------0-10-12--|
|----------------0-3-5---------|-------------0-3-5-0-10-12--|
|-0-0---0-3-5------------------|-0-0---0-3-5-------0-10-12--|


  TP              TP           TP   TP     TP
|----------------------------|---------------------------|
|----------------------------|---------------------------|
|----------------------------|---------------------------|
|-7--------------(7)---------|-7----8-----10-------------|
|----------------------------|---------------------------|
|----------------------------|---------------------------|
|
|----------------------------|---------------------------|
|------------------------5p0-|---------------------------|
|--------------------3h4-----|---------------------------|
|----------------------------|-------------------0-10-12-|
|------------0-3--5----------|-------------0-3-5-0-10-12-|
|-0-0--0-3-5-----------------|-0-0--0-3-5--------0-10-12-|


|------------------------------|---------------------------|
|------------------------------|---------------------------|
|------------------------------|---------------------------|
|-12-10-8-10-8p7-8-7-5-7---5p3-|-5-3-2-3-2p0-------0-10-12-|
|------------------------------|-------------7-5-3-0-10-12-|
|------------------------------|-------------------0-10-12-|
|
|------------------------------|---------------------------|
|--------------------------5p0-|---------------------------|
|----------------------3h4-----|---------------------------|
|------------------------------|-------------------0-10-12-|
|----------------0-3-5---------|-------------0-3-5-0-10-12-|
|--0--0----0-3-5---------------|-0-0---0-3-5-------0-10-12-|


  Gtrs I, II
|-----------------|-----------------|-----------------|-----------------|
|-----------------|-----------------|-----------------|-----------------|
|-----------------|-----------------|-----------------|-----------------|
|-0--------(0)----|-3--------(3)----|-5--------(5)----|-3--------(3)----|
|-0--------(0)----|-3--------(3)----|-5--------(5)----|-3--------(3)----|
|-0--------(0)----|-3--------(3)----|-5--------(5)----|-3--------(3)----|


|-^0--------(0)----|-----------------|
|-^0--------(0)----|-----------------|
|-^0--------(0)----|-----------------|
|-^0--------(0)h===|=3--------(3)----|
|-^0--------(0)h===|=3--------(3)----|
|-^0--------(0)h===|=3--------(3)----|


|-----------------|--------------------------|
|-----------------|--------------------------|
|-----------------|--------------------------|
|-5--------(5)----|-8-8--8--8-8h10-10--10----|
|-5--------(5)----|-8-8--8--8-8h10-10--10----|
|-5--------(5)----|-8-8--8--8-8h10-10--10----|


|---------------------|---------------------|
|---------------------|---------------------|
|---------------------|---------------------|
|-5-5--5-5--5-5--5-5--|-3-3--3-3--3-3--3-3--|
|-5-5--5-5--5-5--5-5--|-3-3--3-3--3-3--3-3--|
|-5-5--5-5--5-5--5-5--|-3-3--3-3--3-3--3-3--|


|-----------------------------|----------------------------------------|
|-----------------------------|----------------------------------------|
|-----------------------------|----------------------------------------|
|-12---12-12-12-12---12-12-12-|-10-10-10-10-10-10-10-10-10-10-10-10----|
|-12---12-12-12-12---12-12-12-|-10-10-10-10-10-10-10-10-10-10-10-10----|
|-12---12-12-12-12---12-12-12-|-10-10-10-10-10-10-10-10-10-10-10-10----|


|---------------------|---------------------|
|---------------------|---------------------|
|---------------------|---------------------|
|-5-5--5-5--5-5--5-5--|-3-3--3-3--3-3--3-3--|
|-5-5--5-5--5-5--5-5--|-3-3--3-3--3-3--3-3--|
|-5-5--5-5--5-5--5-5--|-3-3--3-3--3-3--3-3--|


|-----------------------------|-----------------------------|
|-----------------------------|-----------------------------|
|-----------------------------|-----------------------------|
|-12---12-12-12-12---12-12-12-|-10h12--0--0-10h12h15--15----|
|-12---12-12-12-12---12-12-12-|-10h12--0--0-10h12h15--15----|
|-12---12-12-12-12---12-12-12-|-10h12--0--0-10h12h15--15----|


|---------------------|---------------------|
|---------------------|---------------------|
|---------------------|---------------------|
|-5-5--5-5--5-5--5-5--|-3-3--3-3--3-3--3-3--|
|-5-5--5-5--5-5--5-5--|-3-3--3-3--3-3--3-3--|
|-5-5--5-5--5-5--5-5--|-3-3--3-3--3-3--3-3--|


|-----------------------------|----------------------------------------|
|-----------------------------|----------------------------------------|
|-----------------------------|----------------------------------------|
|-12---12-12-12-12---12-12-12-|-10-10-10-10-10-10-10-10-10-10-10-10----|
|-12---12-12-12-12---12-12-12-|-10-10-10-10-10-10-10-10-10-10-10-10----|
|-12---12-12-12-12---12-12-12-|-10-10-10-10-10-10-10-10-10-10-10-10----|


|-------------------------------|---------------------|
|-------------------------------|---------------------|
|-------------------------------|---------------------|
|-5-5-5-5-5-5-5-5-5-5-5-5-5-5-5-|-3-3--3-3--3-3--3-3--|
|-5-5-5-5-5-5-5-5-5-5-5-5-5-5-5-|-3-3--3-3--3-3--3-3--|
|-5-5-5-5-5-5-5-5-5-5-5-5-5-5-5-|-3-3--3-3--3-3--3-3--|


|---------------------------------|-------------------------------------|
|---------------------------------|-------------------------------------|
|---------------------------------|-------------------------------------|
|-12--12-12-12-12-12--12-12-12-12-|-10-10-10-10-10-10-10-10-10-10-10-10-|
|-12--12-12-12-12-12--12-12-12-12-|-10-10-10-10-10-10-10-10-10-10-10-10-|
|-12--12-12-12-12-12--12-12-12-12-|-10-10-10-10-10-10-10-10-10-10-10-10-|


   >
|-24--------(24)\----|-------------|-------------|-------------|
|--------------------|-------------|-------------|-------------|
|--------------------|-------------|-------------|-------------|
|--------------------|-------------|-------------|-------------|
|--------------------|-------------|-------------|-------------|
|--------------------|-------------|-------------|-------------|


|-------------|-------------|-------------|-------------*|
|-------------|-------------|-------------|-------------*|
|-------------|-------------|-------------|-------------*|
|-------------|-------------|-------------|-------------*|
|-------------|-------------|-------------|-------------*|
|-------------|-------------|-------------|-------------*|


Tablature Legend
----------------
 h   - hammer-on
 p   - pull-off
 b   - bend
 pb  - pre-bend
 r   - bend release (if no number after the r, then release immediately)
 /\  - slide into or out of (from/to "nowhere")
 s   - legato slide
 S   - shift slide
  - natural harmonic
[n]  - artificial harmonic
n(n) - tapped harmonic
 ~   - vibrato
 tr  - trill
 T   - tap
 TP  - trem. picking
 PM  - palm muting
\n/  - tremolo bar dip; n = amount to dip
 \n  - tremolo bar down
 n/  - tremolo bar up
/n\  - tremolo bar inverted dip
 =   - hold bend; also acts as connecting device for hammers/pulls
 <>  - volume swell (louder/softer)
 x   - on rhythm slash represents muted slash
 o   - on rhythm slash represents single note slash




***************************************************************************************
***************************************************************************************





Comments


Popular A Perfect Circle tabs & chords
3 Libras 2 Bass Tabs
3 Libras Remix Bass Tabs
Crimes 1 Bass Tabs
Imagine Bass Tabs
Pet 3 Bass Tabs
The Hollow Bass Tabs
3 Libras 3 Tabs
The Hollow Tabs
Three Libras 1 Tabs
Love Song Ukulele


Song lyrics



↑ Back to top | Tablatures and chords are parodies/interpretations of the original songs. You may use it for private study, scholarship, research or language learning purposes only
© 2014 AZChords.com Contact us | Privacy policy | DMCA | Add/correct tabs | Request tabs | Top 50 tabs