>
 >
Wake The Dead

Wake The Dead Guitar Tabs

A Perfect  Circle - Wake The Dead chords, tabs, tablatures, lyrics

Guitar lessons | Add/correct | Request | Top 50 tabs Artists:  A B C D E F G H I J K L M N O P Q R S T U V W X Y Z 0-9

Wake The Dead Guitar Tabs – A Perfect Circle

CD, Sheet music, Poster

Do you like Wake The Dead? Share with your friends now
TabsTabs v2Tabs v3
Wake the Dead
tuning [EADGBe]
despite common belief this song is played in standard tuning so leave the open "E" for the bottleneck work. oh and the violin solo is at the end it may not be exactly perfect but its hard to hear and if you play it softly no one can tell if its wrong ;-)

                               Wake the Dead


                                                                 Play 6times
|--------7-----5h7p5---------------------7-------5---------------------------
|8-------------------7-8---------8-----------------7-8-----------------------
|---0------0--------------0---------0------0---------------------------------
|----------------------------------------------------------------------------
|10---10-----10-------------10---10---10-----10------------------------------
|----------------------------------------------------------------------------



                                                                  Play 4times
|----0-------------0-------------2-----3-----0-------------------------------
|8-----8-------7-----7-------5-----5-----5-----5-----------------------------
|--0-----0-------0-----0-------0-----0-----0-----0---------------------------
|----------------------------------------------------------------------------
|7-------------5-------------3-----------------------------------------------
|----------------------------------------------------------------------------


|----0-------------0-------------2-----0-----0-------------------------------
|8-----8-------7-----7-------5-----5-----5-----5-----------------------------
|--0-----0-------0-----0-------0-----0-----0-----0---------------------------
|----------------------------------------------------------------------------
|7-------------5-------------3-----------------------------------------------
|----------------------------------------------------------------------------




                                                                  Play 4times
|----2-----------2-----------3--2--3--2--3p2---------------------------------
|3-----3-----3-----3-----3------3--3--3--3-----------------------------------
|--0-----0-----0-----0-----0-------------------------------------------------
|----------------------------------------------------------------------------
|2-----------2-----------3---------------------------------------------------
|------------------------------------------------------------------------0---




                                                                  Play 2times
|------0--------------0--------------0--------------0------------------------
|0-------0------0-------0------0-------0------0-------0----------------------
|--8-------8------8-------8------8-------8------8-------8--------------------
|----9--------------9--------------9--------------9--------------------------
|----------------------------------------------------------------------------
|0--------------0--------------0--------------0------------------------------




                                                                  Play 3
times
|------0--------------0----------------------------5-------------------------
|0-------0------0-------0-----0------0-------0-------0-----------------------
|--5-------5------5-------5-----0------0-------0-------0---------------------
|----7--------------7-------------4------4-------4---------------------------
|0--------------0------------------------------------------------------------
|-----------------------------0--------------0-------------------------------

                                                                 Play 1 
time
|------0--------------0--------------0-------------0-------------------------
|0-------0------0-------0-----0--------0-----0-------0-----------------------
|--5-------5------5-------5-----0--------0-----0-------0---------------------
|----7--------------7-------------4--------------4---------------------------
|0--------------0------------------------------------------------------------
|-----------------------------0--------------0-------------------------------




                                                                  Play 4
times
|----0-------------0-------------2-----3-----0-------------------------------
|8-----8-------7-----7-------5-----5-----5-----5-----------------------------
|--0-----0-------0-----0-------0-----0-----0-----0---------------------------
|----------------------------------------------------------------------------
|7-------------5-------------3-----------------------------------------------
|----------------------------------------------------------------------------


|----0-------------0-------------2-----0-----0-------------------------------
|8-----8-------7-----7-------5-----5-----5-----5-----------------------------
|--0-----0-------0-----0-------0-----0-----0-----0---------------------------
|----------------------------------------------------------------------------
|7-------------5-------------3-----------------------------------------------
|----------------------------------------------------------------------------




                                                                  Play 6
times
>-|----2-----------2-----------3--2--3--2--3p2---------------------------------
>-|3-----3-----3-----3-----3------3--3--3--3-----------------------------------
>-|--0-----0-----0-----0-----0-------------------------------------------------
>-|----------------------------------------------------------------------------
>-|2-----------2-----------3---------------------------------------------------
>-|------------------------------------------------------------------------0---
>
>
>
>
>                                                                  Play 2 
>times
>-|------0--------------0--------------0--------------0------------------------
>-|0-------0------0-------0------0-------0------0-------0----------------------
>-|--8-------8------8-------8------8-------8------8-------8--------------------
>-|----9--------------9--------------9--------------9--------------------------
>-|----------------------------------------------------------------------------
>-|0--------------0--------------0--------------0------------------------------
>
>
>
>
>
>                                                                  Play 1 
>time
>-|------0--------------0----------------------------5-------------------------
>-|0-------0------0-------0-----0------0-------0-------0-----------------------
>-|--5-------5------5-------5-----0------0-------0-------0---------------------
>-|----7--------------7-------------4------4-------4---------------------------
>-|0--------------0------------------------------------------------------------
>-|-----------------------------0--------------0-------------------------------
>
>
>
>
>
>                                                                 Play 5 
>times
>-|------0--------------0-------------0--------------0-------------------------
>-|0-------0------0-------0-----0-------0------0-------0-----------------------
>-|--5-------5------5-------5-----0-------0------0-------0---------------------
>-|----7--------------7-------------4--------------4---------------------------
>-|0--------------0------------------------------------------------------------
>-|-----------------------------0--------------0-------------------------------
>
>
>
>
>
>   Slow Down.......
>-|------0--------------0------------------------------------------------------
>-|0-------0------0-------0-----0----------------------------------------------
>-|--0-------0------0-------0--------------------------------------------------
>-|----4--------------4--------------------------------------------------------
>-|----------------------------------------------------------------------------
>-|0--------------0-------------0----------------------------------------------

Here is the violin solo, transcripted for guitar. Please e-mail me for any 
commets
or corrections.

                              Wake the Dead
                              (violin Solo)





0:35                      0:48                 1:04
-22^^^^^^^^^^22b23^^-19--|--------------------|-------------------------------
-------------------------|--19b19b19b19b------|--12-12\15---10\12-------------
-------------------------|--------------------|-------------------------------
-------------------------|--------------------|-------------------------------
-------------------------|--------------------|-------------------------------
-------------------------|--------------------|-------------------------------

                                    1:21
-----------------------------------|------------------------------------------
-10--12\13/12----12\15--17/15-12---|-----12b12b12b----------------------------
-----------------------------------|------------------------------------------
-----------------------------------|------------------------------------------
-----------------------------------|------------------------------------------
-----------------------------------|------------------------------------------

1:33
-19b19--------------|------17-19-19b19--19\22-22--|--22b24b22-19--------------
-------17-12-12b12--|--12-------------------------|---------------------------
--------------------|-----------------------------|---------------------------
--------------------|-----------------------------|---------------------------
--------------------|-----------------------------|---------------------------
--------------------|-----------------------------|---------------------------


-19\20/19---------------------------|----------------------|------------------
----------17--12\13/12--------------|----------------------|--12\13/12\13/12--
------------------------12----------|----------------------|------------------
----------------------------9\10/9--|------9\10/9-9b9b9b---|------------------
------------------------------------|----------------------|------------------
------------------------------------|----------------------|------------------

1:55                      2:10                                2:30
----12-14-19-14-17-17^^^^|----------------|------------------|----------------
-12----------------------|--19b19b19-19-17|--12b12/8h10p8-12-|-7-7\8-8\10-----
-------------------------|----------------|------------------|----------------
-------------------------|----------------|------------------|----------------
-------------------------|----------------|------------------|----------------
-------------------------|----------------|------------------|----------------

                       2:34
----------------------|---19b19-------14b14-----------------------------------
-10\12-12--12b12b12b--|---------17----------12------12b12b12b-----------------
----------------------|-------------------------------------------------------
----------------------|-------------------------------------------------------
----------------------|-------------------------------------------------------
----------------------|-------------------------------------------------------

2:38
---------22-22-21b24-21-------------22-22---22-20-19--------------------------
---19-19---------------------19-19--------------------------------------------

         2:57
-20-19--|---------------------------------------------------------------------
--------|---------------------------------------------------------------------
--------|--9-9\10/9-9^^^^^^^-9\12---12\14-------------------------------------
--------|---------------------------------------------------------------------
--------|---------------------------------------------------------------------
--------|---------------------------------------------------------------------





Comments


Popular A Perfect Circle tabs & chords
Blue Bass Tabs
Gravity Bass Tabs
The Package 3 Bass Tabs
Vanishing Bass Tabs
Weak And Powerless 4 Bass Tabs
The Noose 2 Chords
Judith Tabs
Judith 2 Tabs
Judith 8 Tabs
Over 1 Tabs


Song lyrics



↑ Back to top | Tablatures and chords are parodies/interpretations of the original songs. You may use it for private study, scholarship, research or language learning purposes only
© 2014 AZChords.com Contact us | Privacy policy | DMCA | Add/correct tabs | Request tabs | Top 50 tabs