>
 >
Vanishing

Vanishing Bass Tabs

A Perfect  Circle - Vanishing chords, tabs, tablatures, lyrics

Guitar lessons | Add/correct | Request | Top 50 tabs Artists:  A B C D E F G H I J K L M N O P Q R S T U V W X Y Z 0-9

Vanishing Bass Tabs – A Perfect Circle

CD, Sheet music, Poster

Do you like Vanishing? Share with your friends now
Bass TabsBass Tabs v2ChordsUkulele
A Perfect Circle
“Vanishing”
Thirteenth Step

I just recently saw APC live (11/1/03). It was awesome. This was their opening song
and actually the first time I’ve listened to the whole thing. So here it is: 
-xxeyelessxx-

     Intro  0:35
E  |-----------------------------------------------------------
B  |-----------------------------------------------------------
F# |---2(X64)--7-7-7-5(X13)------------7(X6)-5(X10)------------
Db |--------------------------3(X16)------------------3(X16)---


      Verse 1:07   (first time you play it, end with 5-5--5-5--5-5\)
E  |---------------------------------------------------------------
B  |---------------------------------------------------------------
F# |---2-2--2-2--2-2--2--2-2-2-2/5-5--5-5--------------------------
Db |---------------------------------------3-3--3--3--3-3/---------

E  |---------------------------------------------------------------
B  |---------------------------------------------------------------
F# |---------------------------------------------------------------
Db |-5-5--5-5--5-5\3--3--3-5-3---5-5---5-5--5-5--5--5-5-5-5-5------

     Chorus 2:43
E  |-------------------------------------------------------------------
B  |-------------------------------------------------------------------
F# |--7-7-7-5(X13)-------------------------------7(X6)-5(X6)-5h7p5-----
Db |----------------3-3--3-3--3-3--3--3-3-3-3-3------------------------

E  |-----------------------------------
B  |-----------------------------------
F# |-----------------------------------
Db |---3-3--3-3--3-3--3--3-3-3-3-3-----


-Intro 2:59-

-Verse 3:31 until the song ends-





Comments


Popular A Perfect Circle tabs & chords
3 Libras Bass Tabs
Pet 3 Bass Tabs
Thomas Bass Tabs
A Stranger 1 Tabs
Magdalena 1 Tabs
Magdalena 2 Tabs
Peace Love And Understanding Intro 1 Tabs
The Noose 2 Tabs
3 Libras Ukulele
Just Get Over It Ukulele


Song lyrics



↑ Back to top | Tablatures and chords are parodies/interpretations of the original songs. You may use it for private study, scholarship, research or language learning purposes only
© 2014 AZChords.com Contact us | Privacy policy | DMCA | Add/correct tabs | Request tabs | Top 50 tabs