» » »

Three Libras Tabs (ver.2)

Artists:  A B C D E F G H I J K L M N O P Q R S T U V W X Y Z # 

Three Libras Tabs (ver.2)

A Perfect Circle
Rating:
0/5 (0 votes)

Hard to play? Try these video lessons and learn fast.
                Intro (Acoustic)
e|-----------------|----------------|----------------|----------------|
b|o----------------|----------------|----------------|----------------|
g|---4----------4--|--4----------4--|--4----------4--|--8----------8--|
D|-----------------|----------------|----------------|----------------|
A|o-------7--------|-------7--------|-------7--------|-------11-------|
E|---5-------5-----|--5-------5-----|--5-------5-----|--9-------9-----|

(Continued)
e|----------------|----------------|----------------|-----------------|
b|----------------|----------------|----------------|----------------o|
g|--4----------4--|--4----------4--|--11---------11-|--8----------8---|
D|----------------|----------------|----------------|-----------------|
A|-------7--------|-------7--------|-------12-------|-------11-------o|
E|--5-------5-----|--5-------5-----|--12-----13-----|--9-------9------|

(Continued)
e|------------------|                |-----------|
b|o----------------o|                |-----------|
g|---9----------9---|                |---9-------|
D|------------------|                |-----------|
A|o-------12-------o|                |--12-------|
E|---10------10-----| Repeat 3 times |--10-------|


Verse
e|-----------------|----------------|----------------|-----------------|
b|o----------------|----------------|----------------|----------------o|
g|---4----------4--|--4----------4--|--6----------6--|--7----------7---|
D|-----------------|----------------|----------------|-----------------|
A|o-------7--------|-------7--------|-------9--------|-------10-------o|
E|---5-------5-----|--5-------5-----|--7-------7-----|--8-------8------|
                                                          Repeat 4 times

The Ending (You don't, you don't, you don't.......save me)
e|--------------------------------------------------------------------------------------|
b|--------------------------------------------------------------------------------------|
g|--6--6--6--6-\4--4--4--4--4--4--4--4--4--4-/6--6--6--6/-8--8--8--8--8--8--8--8--8--8--|
D|--------------------------------------------------------------------------------------|
A|--4--4--4--4-\2--2--2--2--2--2--2--2--2--2-/4--4--4--4/-6--6--6--6--6--6--6--6--6--6--|
E|--------------------------------------------------------------------------------------|

(Continued)
e|--------------------------------------------------------------------------------------|
b|--------------------------------------------------------------------------------------|
g|--6-----6-\4-----4--4--4--4--4--4--4--4--4-/6--6--6--6/-8--8--8--8--8--8--8--8--8--8--|
D|--------------------------------------------------------------------------------------|
A|--4-----4-\2-----2--2--2--2--2--2--2--2--2-/4--4--4--4/-6--6--6--6--6--6--6--6--6--6--|
E|--------------------------------------------------------------------------------------|

(Continued)
e|--------------------------------------------------------------------------------------|
b|--------------------------------------------------------------------------------------|
g|--9-9-9-9/-13-13-13-13-13-13-13-13-13-13-13--/16-16-16-16-16-\9--9-\8--8--8--8--8--8--|
D|--------------------------------------------------------------------------------------|
A|--7-7-7-7/-11-11-11-11-11-11-11-11-11-11-11--/14-14-14-14-14-\7--7-\6--6--6--6--6--6--|
E|--------------------------------------------------------------------------------------|

(Continued)
e|--------------------------------------------------------------------------------------|
b|-----------------------------------------------------------------3--------------------|
g|--6--\4-4-----4-4---4--4---4-4-/6--6-\4--4--4--4--4--4-\2--2--2--2--------------------|
D|-----------------------------------------------------------------0--------------------|
A|--4--\2-2-----2-2---2--2---2-2-/4--4-\2--2--2--2--2--2-\0--0--0--0--------------------|
E|--------------------------------------------------------------------------------------|
            
Hard to play? Try these video lessons and learn fast. | Correct




comments powered by Disqus
↑ Back to top | Tablatures and chords are parodies/interpretations of the original songs. You may use it for private study, scholarship, research or language learning purposes only