» » »

A Perfect Circle, Rose Tabs (ver.2)

Artists:  A B C D E F G H I J K L M N O P Q R S T U V W X Y Z # 

Rose Tabs (ver.2)

A Perfect Circle Tabs
 Rating:
4/5 (4 votes)
Rose lessons Tabs too difficult? Try these video lessons and learn fast
1
                song droped down to D tuneing
PICK THROUGH CHORD: 
 
E	0 
B	3 
G	4 
D	2 
A	3 
 
 
e------0----------------------------| 
B------3-3--------------------------| 
G---4----4--------------------------| 
D---2-------------------------------| 
A-3---------------------------------| 
D-----------------------------------| 
 
 
5-STRING 
BASS WITH DIST 
 
	*harm 
G-----------------------------------| 
D--------------------------*5-------| 
A-----*5---(REPEAT)-----*5----------| 
D--3--------------------------------| 
B-----------------------------------| 
 
 
 
GUITAR - REPEAT INTRO 
 
 
 
5-STRING 
BASS WITH DIST. 
G------------------------------------| 
D------------------------------------| 
A-----------------------C------------| 
D--2--5--2--7--2--5--2---------------| 
B-----------------------C------------| 
 
 
 
 
 
 
	[SOLO] 
 
e-------------------------------------| 
B--12---12--13--/-(20)--12--10--10----| 
G-------------------------------------| 
D-------------------------------------|REPEAT 
A-------------------------------------| 
D-------------------------------------| 
 
e---12--10--12--10--12--13--12--10-------------| 
B-----------------------------------13--12-----| 
G----------------------------------------------| 
D----------------------------------------------| 
A----------------------------------------------| 
D----------------------------------------------| 
 
 
	[BRIDGE] 
 
WHEN PUSH COMES TO PULL COMES TO... 
PM........... 
 
e----------------------------------------------| 
B----------------------------------------------| 
G--9---12---9---14---9--12--9--5---------------| 
D--9---12---9---14---9--12--9--5---------------|REPEAT 
A--7---10---7---12---7--10--7--3---------------| 
D----------------------------------------------| 
 
 
 
I ROSE I ROARD ALOUD HERE I WILL I AM 
 
e-------------------------------------10------| 
B--10---10---10---12---10---10---12-----------| 
G---------------------------------------------| 
D---------------------------------------------| 
A---------------------------------------------| 
D---------------------------------------------| 
 
 
 
 
 
 
 
I AM I WILL SO NO LONGER...... 
 
e-------------------------------------------| 
B-------------------------------------------| 
G-------------------------------------------| 
D--2---5--2--7---2--5--2--3-----------------| 
A--2---5--2--7---2--5--2--3-----------------| 
D--2---5--2--7---2--5--2--3-----------------| 
 
END SONG ON	3  
		3 
		3
            
Submit corrections

comments powered by Disqus
↑ Back to top | A Perfect Circle Tabs for Rose. Lyrics for acoustic guitar and electric guitar. 1 Tablatures and chords are parodies/interpretations of the original songs. You may use it for private study, scholarship, research or language learning purposes only